» » »

Unsigned, Wonka Factory - Impuestos De Chocolate Tabs (ver.1)

Artists:  A B C D E F G H I J K L M N O P Q R S T U V W X Y Z # 

Wonka Factory - Impuestos De Chocolate Tabs (ver.1)

Unsigned Tabs
 Rating:
4/5 (4 votes)
Wonka Factory - Impuestos De Chocolate lessons Tabs too difficult? Try these video lessons and learn fast
                Wonka Factory. Impuestos de chocolate.

Intro
----------------------------------------10h11-10h11-10h11-10h11-10h11-10h11-10h11----
-10h11-10h11-10h11-10h11-10h11-10h11-10h11---------------------------------------(x2)
4th time
10h11-10h11-10h11-10h11-10h11-10h11-10h11////////////////////////////////////--------

Verse
--------------------------------------------------------33333333333------------------
-33333333333555555555555777777777777555555555555333333333333333333333--55555555555577777777777 4444455555-
-33333333333555555555555--777777777777--555555555555--11111111111--3333333333--555555555555--777777777777-- 4444455555--              
-11111111111--333333333333--555555555555--333333333333---------------1111111111--333333333333--555555555555---2222233333--   

Chorus
-5555555555--3333333333--------------------------555555555--333333--------------------
-5555555555--3333333333--3333333333--5555555555--555555555--333333--333333--555555----
-3333333333--1111111111--3333333333--5555555555--333333333--111111--333333--555555----
-------------------------1111111111--3333333333---------------------111111--333333----
         
Verse
--------------------------------------------------------33333333333-------------------------------------------------------
-33333333333--555555555555--777777777777--555555555555--33333333333--3333333333--555555555555--777777777777-- 4444455555--
-33333333333--555555555555--777777777777--555555555555--11111111111--3333333333--555555555555--777777777777-- 4444455555--              
-11111111111--333333333333--555555555555--333333333333---------------1111111111--333333333333--555555555555---2222233333--  


Chorus
-5555555555--3333333333--------------------------555555555--333333--------------------
-5555555555--3333333333--3333333333--5555555555--555555555--333333--333333--555555----
-3333333333--1111111111--3333333333--5555555555--333333333--111111--333333--555555----
-------------------------1111111111--3333333333---------------------111111--333333----

Outro
------------------------------------------10h11-10h11-10h11-10h11-10h11-10h11-10h11--------
-10h11-10h11-10h11-10h11-10h11-10h11-10h11-------------------------------------------------
3th time
10h11-10h11-10h11-10h11-10h11-10h11-10h11////////////////////////////////////////////////--

Chorus
-5555555555--3333333333--------------------------555555555--333333--------------------
-5555555555--3333333333--3333333333--5555555555--555555555--333333--333333--555555----
-3333333333--1111111111--3333333333--5555555555--333333333--111111--333333--555555----
-------------------------1111111111--3333333333---------------------111111--333333----
            
Submit corrections

comments powered by Disqus
↑ Back to top | Unsigned Tabs for Wonka Factory - Impuestos De Chocolate. Lyrics for acoustic guitar and electric guitar. Tablatures and chords are parodies/interpretations of the original songs. You may use it for private study, scholarship, research or language learning purposes only