» » »

Wired - Filthy Tabs (ver.1)

Artists:  A B C D E F G H I J K L M N O P Q R S T U V W X Y Z # 

Wired - Filthy Tabs (ver.1)

Unsigned
Rating:
0/5 (0 votes)

Hard to play? Try these video lessons and learn fast.
                
This is an instrumental song that  mainly inlvolves guitar playing but it's just fun to mess around with...
It really doesn't revlolve around any scale or mode...I wrote it in my earlier days of playing guitar and I had about 20 people ask me to tab
it out for them so...here it is...

Tuning (AEADGBe) or for the six-stringer out there (AEADGB)
Key:

	( )= ghost note
	p= pull-off
	h= hammer on
	T= tap with finger or edge of pick
	pH= pinch harmonics
	AH= Artificial Harmonics
	//= pick as fast as you can
	bh= bend half
	b= bend full
	~= trill and/or let ring
	*= feedback
	/= slide up
	\= slide down
	PM= palm mute

(synth and distorsion with auto-wah)
			          pH   (4 times)
e|-------------------------|--------------|
B|-------------------------|--------------|
G|o-----------------------o|--------------|
D|-------------------------|--------------|
A|o---------------2---5b--o|--0002h3p2p0--|
E|--0-0-0-0-0-2-3---3------|--0002h3p2p0--|
A|-------------------------|--0002h3p2p0--|
 PM...........    .           ..........

(distorsion)

e|----------------------------------------------|
B|----------------------------------------------|
G|o--------------------------------------------o|
D|-------------------------------------333333---|
A|o-------------2----------------------xxxxxx--o|
E|---------------3-2-0-----------------111111---|
A|---0002h3p2p0--------5-3-2-0---0h3h5-333333---|

(Solo)

e|-----------------------------12--11h12p11--12-11-----------------------------------|
B|-----------12-12-14-15-16-14-//------------------14-12-11--------------------------|
G|-----------------//-//-//-//-------------------------------4p2p0-------------------|
D|--2222-22--------------------------------------------------------4p2p0-------------|
A|--0000-44--------------------------------------------------------------4p2p0-------|
E|--0000-00--------------------------------------------------------------------------|
A|--0000-00--------------------------------------------------------------------4p2p0-|

       T     T     T     T  (6x)     T         (10x)                    pH
e|------------------------------|--------------------|-----------------------|
B|(12)h17p12-17p13-17p15-17p16--|----17p16p15p13p12--|-----------------------|
G|o----------------------------o|o------------------o|------------------12b~-|(ring out)
D|------------------------------|--------------------|---------------5~------|
A|o----------------------------o|o------------------o|--x-x-x--------3~------|
E|------------------------------|--------------------|--x-x-x--------2~------|
A|------------------------------|--------------------|--x-x-x--0-2-3-3~------|

Well that's pretty much it...it's not a very long song but it entertains people none the less.
            
Hard to play? Try these video lessons and learn fast. | Correct




comments powered by Disqus
↑ Back to top | Tablatures and chords are parodies/interpretations of the original songs. You may use it for private study, scholarship, research or language learning purposes only