» » »

Unsigned, Whisper - Skin Tabs (ver.1)

Artists:  A B C D E F G H I J K L M N O P Q R S T U V W X Y Z # 

Whisper - Skin Tabs (ver.1)

Unsigned Tabs
Rating:
0/5 (0 votes)
Hard to play? Try these video lessons and learn fast.
                SKIN

Tuning - DADGBE

Effects - Clean long delay, Distortion, Flange

Time Signature - 4/4


  Intro Riff I (Clean long delay)
  |==============================4x==================================|
E |------------------------------------------------------------------|
B |------------------------------------------------------------------|
G |------------------------------------------------------------------|
D |------7---5---0---5---2---3-----------7---5---0---5---2---3---2---|
A |------------------------------------------------------------------|
D |--0-------------------------------0-------------------------------|

  Intro Riff II
  |===================================8x===================================|
E |------------------------------------------------------------------------|
B |------------------------------------------------------------------------|
G |------------------------------------------------------------------------|
D |------7---5---0---5---0---2h3p2p0-------7---5---0---8---7---7h8p7---5---|
A |------------------------------------------------------------------------|
D |--0---------------------------------0-----------------------------------|

  Intro Riff III                           Intro Bridge I
  |================4x================|     |========4x========|
E |----------------------------------|   E |------------------|
B |----------------------------------|   B |------------------|
G |------5---7-----------------------|   G |------------------|
D |--------------5---7---3--/5---2---|   D |--0---2---3---5---|
A |----------------------------------|   A |------------------|
D |--0-------------------------------|   D |------------------|

  Intro Riff IV
  |================================4x================================|
E |------------------------------------------------------------------|
B |------------------------------------------------------------------|
G |------------------------------------------------------------------|
D |--0---2---3---5---0---2---3---5---0---2---3---5---0---2---3---5---|
A |------------------------------------------------------------------|
D |--0---------------------------------------------------------------|

  Intro Bridge II                                  Fill
  |====================4x====================|     (fade out while ringing)
E |------------------------------------------|   E |----------------|
B |------------------------------------------|   B |----------------|
G |------------------------------------------|   G |----------------|
D |--0---3h5p3p0h3---2---0---3h5p3p0h3---5---|   D |--0~~~~~~~(0)---|
A |------------------------------------------|   A |----------------|
D |------------------------------------------|   D |--0~~~~~~~(0)---|
  
  Verse (Distortion & flange)
  |=================================4x=================================|
E |--------------------------------------------------------------------|
B |--------------------------------------------------------------------|
G |--------------------------------------------------------------------|
D |--0-----3-----5-----2-----0-----3-------5-(5)-(5)-5-(5)-(5)-6---5---|
A |--0-----3-----5-----2-----0-----3-------5-(5)-(5)-5-(5)-(5)-6---5---|
D |--0-----3-----5-----2-----0-----3-------5-(5)-(5)-5-(5)-(5)-6---5---|
                                           PM_______________________/

  Chorus
  |===================4x===================|
E |----------------------------------------|
B |----------------------------------------|
G |----------------------------------------|
D |--0---0-0-5-0-0-7---7---7-7/8-8/10-10---|
A |--0---0-0-5-0-0-7---7---7-7/8-8/10-10---|
D |--0---0-0-5-0-0-7---7---7-7/8-8/10-10---|

Play Verse 4x
(on 4th time let last chord ring, and then hit open)

  Outro (Clean long delay)
E |--------------------------------------------------------------------------|
B |--------------------------------------------------------------------------|
G |--------------------------------------------------------------------------|
D |--0---7---5---0---5---0---2---3---0---7---5---0---5---0---2---3---2---0~~~|
A |--------------------------------------------------------------------------|
D |--------------------------------------------------------------------------|

Let last note ring

Fin.
            

comments powered by Disqus
↑ Back to top | Unsigned Tabs for Whisper - Skin. Lyrics for acoustic guitar and electric guitar. Tablatures and chords are parodies/interpretations of the original songs. You may use it for private study, scholarship, research or language learning purposes only