» » »

Whisper - Inside Out Tabs (ver.1)

Artists:  A B C D E F G H I J K L M N O P Q R S T U V W X Y Z # 

Whisper - Inside Out Tabs (ver.1)

Unsigned
Rating:
0/5 (0 votes)

Hard to play? Try these video lessons and learn fast.
                Tuning: Drop D (D A D G B E)

This song is extremely easy.  More of a drum feature song.  
Flanger is used throughout the song, clear to the end.  


Intro- Clean Guitar ()-harmonic
E|---7~~~--------------7~~~---------||
B|--(7)~~-------------(7)~~---------||
G|----------------------------------||
D|----------------------------------||  x 2
A|----------------------------------||
D|----------------------------------||

Verse- Clean Guitar I; All Palm Muted
E|---------------------------------------||
B|---------------------------------------||
G|---------------------------------------||
D|--0-0-0-0--7-0-0--5-0-0--2-0-2-0-2/3---||  x 16
A|--0-0-0-0--7-0-0--5-0-0--2-0-2-0-2/3---||
D|--0-0-0-0--7-0-0--5-0-0--2-0-2-0-2/3---||


Guitar II- Distortion; Come's in after Guitar I x 8 
E|---------------------------------------------------------------------------||
B|---------------------------------------------------------------------------||
G|---------------------------------------------------------------------------||
D|--0~~~~~~-3~~~~~~-5~~~~~~~-0~~~~~~-0~~~~~~-3~~~~~~-5~~~~~~-0~~~~~~~--------||
A|--0~~~~~~-3~~~~~~-5~~~~~~~-0~~~~~~-0~~~~~~-3~~~~~~-5~~~~~~-0~~~~~~~--------||
D|--0~~~~~~-3~~~~~~-5~~~~~~~-0~~~~~~-0~~~~~~-3~~~~~~-5~~~~~~-0~~~~~~~--------||

Verse- Clean Guitar I; No Longer PM  
E|---------------------------------------||
B|---------------------------------------||
G|---------------------------------------||
D|-0-0-0-0--7-0-0--5-0-0--2-0-2-0-2/3----|| x 8
A|-0-0-0-0--7-0-0--5-0-0--2-0-2-0-2/3----||
D|-0-0-0-0--7-0-0--5-0-0--2-0-2-0-2/3----||

Chorus- Distortion Guitar I
E|-------------------------||
B|-------------------------||
G|-------------------------||
D|-7-7--5-5--7--0-0-0-0----|| x 7
A|-7-7--5-5--7--0-0-0-0----||
D|-7-7--5-5--7--0-0-0-0----||

Bridge to Verse- Distortion Guitar I
       PM       PM
E|-------------------------||
B|-------------------------||
G|-------------------------||
D|--0-0-0-0--0-0-0-0-------|| 
A|--0-0-0-0--0-0-0-0-------||
D|--0-0-0-0--0-0-0-0-------||

Repeat the Verse playing Guitar II's figure then Chorus then Interlude----

Interlude- Clean Guitar I
Played slowly
E|---------------------------------------------------------------------------||
B|---------------------------------------------------------------------------||
G|---------------------------------------------------------------------------||
D|---8---7---5---7----7---5---3---5------8---7---5---7----7---5---3---2-2----||
A|---------------------------------------------------------------------------||
D|---------------------------------------------------------------------------||

E|---------------------------------------------------------------------------||
B|---------------------------------------------------------------------------||
G|---------------------------------------------------------------------------||
D|---8--7---8--5---8--7---3--2-----------8--7---8--5---8--7---3--2~~~~~~~~~--||
A|---------------------------------------------------------------------------||
D|---------------------------------------------------------------------------||

Fingerpicking
E|---------------------------------------------------------------------------||
B|---------------------------------------------------------------------------||
G|---------------------------------------------------------------------------||
D|--8-8-8--7-7-7-7-7--8-8-8--5-5-5-5-5--8-8-8--7-7-7-7-7--3-3-3--2-2-2-2-2---|| x 2
A|---------------------------------------------------------------------------||
D|--0-0-0--0-0-0-0-0--0-0-0--0-0-0-0-0--0-0-0--0-0-0-0-0--0-0-0--0-0-0-0-0---||


E|---------------------------------------||
B|---------------------------------------||
G|---------------------------------------||
D|--12-10---8---10--8---7--8--7----------|| x 4
A|---------------------------------------||
D|--0--0----0---0---0---0--0--0----------||

Interlude- Distortion Guitar II; start playing at the fingerpicking part.
   PM                    PM                      
E|-------------------------------------------------------------||
B|-------------------------------------------------------------||
G|-------------------------------------------------------------||
D|---0--0--0--0~~~~~~~---0--0--0--0~~~~~~~~--------------------||
A|---0--0--0--0~~~~~~~---0--0--0--0~~~~~~~~--------------------||
D|---0--0--0--0~~~~~~~---0--0--0--0~~~~~~~~--------------------||

Guitar II first, Guitar I come in after done with fingerpicking part.
                      PM
E|-------------------------------------------||
B|-------------------------------------------||
G|-------------------------------------------||
D|--0-0-0-0--7--0-0--5--0-0--2-0-2-0--2/3----|| x 8
A|--0-0-0-0--7--0-0--5--0-0--2-0-2-0--2/3----||
D|--0-0-0-0--7--0-0--5--0-0--2-0-2-0--2/3----||

Sudden Stop... 8 count, Guitar I distortion
         Fig. 1        Mute                   Mute                  Mute
E|---------------------------------------------------------------------------||
B|---------------------------------------------------------------------------||
G|---------------------------------------------------------------------------||
D|---0--0-0--5p3--0----------0--0-0--5p3--0---------0--0-0--5p3--0-----------||
A|---0--0-0--5p3--0----------0--0-0--5p3--0---------0--0-0--5p3--0-----------||
D|---0--0-0--5p3--0----------0--0-0--5p3--0---------0--0-0--5p3--0-----------||

                      Mute       Fig. 2  x 4
E|---------------------------------------------------------------------------||
B|---------------------------------------------------------------------------||
G|---------------------------------------------------------------------------||
D|---0--0-0--5p3--0----------0--0-0--5p3--0-0-0--5p3--(7)--------------------||
A|---0--0-0--5p3--0----------0--0-0--5p3--0-0-0--5p3--(7)--------------------||
D|---0--0-0--5p3--0----------0--0-0--5p3--0-0-0--5p3--(7)--------------------||

    Guitar Solo
      Fig. 1
E|---------------------------------------------------------------------------||
B|---------------------------------------------------------------------------||
G|---------------------------------------------------------------------------||
D|---12-12--12-12--12-12---15-15-15-15-15-15---14-14-14-14-14-14-------------||
A|---12-12--12-12--12-12---15-15-15-15-15-15---14-14-14-14-14-14-------------||
D|---12-12--12-12--12-12---15-15-15-15-15-15---14-14-14-14-14-14-------------||

   Guitar Solo cont.
                             Fig. 2
E|---------------------------------------------------------------------------||
B|---------------------------------15------------15------15---------15-------||
G|--------------------------15--15----15--15--15-----15------14--14-----14---||
D|---17-17--17-17--17--17----------------------------------------------------||
A|---17-17--17-17--17--17----------------------------------------------------||
D|---17-17--17-17--17--17----------------------------------------------------||


E|----------------------||
B|----------15-----15---||
G|--14--14------14------||
D|----------------------|| Fig. 2 x 4
A|----------------------||
D|----------------------||

On the fourth time don't go to fourteenth fret and bend the two 15's
E|--------------------------------------------------------||
B|----15^16^17--15^16^17---15^17--------------------------||
G|----15^16^17--15^16^17---15^17--------------------------||
D|--------------------------------------------------------||
A|--------------------------------------------------------||
D|--------------------------------------------------------||

   Verse 2- Distortion Guitar 1
E|----------------------------------------||
B|----------------------------------------||
G|----------------------------------------||
D|----0-0--7--0--5--0--2--0--2--0--2/3----|| x 8
A|----0-0--7--0--5--0--2--0--2--0--2/3----||
D|----0-0--7--0--5--0--2--0--2--0--2/3----||

Drum Solo

Guitar Comes in playing open barre chord after 8th measure of drum solo until sudden stop at end.

Fin.
            
Hard to play? Try these video lessons and learn fast. | Correct




comments powered by Disqus
↑ Back to top | Tablatures and chords are parodies/interpretations of the original songs. You may use it for private study, scholarship, research or language learning purposes only