» » »

Wc - Clouds Klaus Bass tabs (ver.1)

Artists:  A B C D E F G H I J K L M N O P Q R S T U V W X Y Z # 

Wc - Clouds Klaus Bass tabs (ver.1)

Unsigned
Rating:
0/5 (0 votes)

Hard to play? Try these video lessons and learn fast.
                This tab is the bass-tab to the first song of my own band called WC.It's not that hard but really a lot of fun
Intro1 2x :
G|-------------------------------------
D|-------------------------------------
A|---------7-xxx-7-10-xxx-10-----------
E|-7-xxx-7-------------------10-xxx-10-

Intro2 2x :
G|-------------------------------------
D|---------------9--------12-----------
A|-------9-7-xxx---10-xxx-----------12-
E|-7-xxx---------------------10-xxx----

Pre-Verse 2x :
G|-----------------------------------------
D|-----------------------------------------
A|---------7-7-7-7-10-10-10-10-------------
E|-7-7-7-7---------------------10-10-10-10-

Verse 4x :
G|-------------------------------------
D|-------------------------------------
A|-2222222222222222---------------5555-
E|------------------00000000-3333------

Pre-Chorus1 3x :            Pre-Chorus2 1x :
G|----------------------    G|-------------
D|----------------------    D|-------------
A|------2222------55-33-    A|------2222---
E|-3333------0000-------    E|-3333------0-

Mute Thing 2x :
G|------------------------------
D|------------------------------
A|-------------2--2-xxx-2-xxx---
E|-3-xxx-3-xxx----------------3-

Pre-Verse 2x
Verse 4x
Pre-Chorus1 2x

Pre-Chorus3 1x :
G|--------------------
D|--------------------
A|------2222----------
E|-3333------0----\12-

Chorus 4x :
G|----------------------
D|--------------------9-
A|---------10--2-22-\9--
E|-3-33-\10-------------

Mute Thing 2x
Pre-Verse 2x
Verse 4x
Pre-Chorus1 2x
Pre-Chorus3 1x
Chorus 4x
Mute Thing 2x
Pre-Verse 2x
Verse 4x
Pre-Chorus1 2x
Pre-Chorus3 1x
Chorus 6x

End with last guitar-note on G|---16---
                             D|--------
                             A|--------
                             E|--------
            
Hard to play? Try these video lessons and learn fast. | Correct




comments powered by Disqus
↑ Back to top | Tablatures and chords are parodies/interpretations of the original songs. You may use it for private study, scholarship, research or language learning purposes only