>
 >
Wasting My Time

Wasting My Time Bass Tabs

Unsigned - Wasting My Time chords, tabs, tablatures, lyrics

Guitar lessons | Add/correct | Request | Top 50 tabs Artists:  A B C D E F G H I J K L M N O P Q R S T U V W X Y Z 0-9

Wasting My Time Bass Tabs – Unsigned

CD, Sheet music, Poster

Do you like Wasting My Time? Share with your friends now
Bass Tabs
Intro (guitar)
Pre-verse
G------------------------------------------| x4
D-------x-x-x------------------------------|
A-5--5--x-x-x------x-x-x-------------------|
E-------------77--x-x-x-3--3--3--5----5-5-|

Verse (Palm-muted)
G--------------------------------------|x6
D--------------------------------------|
A-5-5-5-5------------------------------|
E----------7-7-7-7---3-3-3---5-5-5-5-5-| 

Pre-verse x2
Verse x4
Chorus x4

G---------------------------------|
D---------3-3-3-3-5-5-5-----------|
A-5-5-5-5---------------3-3-3-3-3-|
E---------------------------------|

Pre-verse x4
Verse x6
Pre-verse x2
Verse x4
Chorus

Bridge pt.1
G------------------------------------------------------------|
D--------------------------------------------x-x-x-----------|
A-55555555---------------x-x-x-----x-x-x--55-x-x-x-----x-x-x-|
E-----------55555555--77-x-x-x--33-x-x-x------------55-x-x-x-|

Bridge pt.2
G----------------------------------x-x-x-|
D--------------x-x-x------------77-x-x-x-|
A----x-x-x--99-x-x-x-----x-x-x-----------|
E-77-x-x-x------------99-x-x-x-----------|

Bridge pt.3	
G----------------------------------------|
D----x-x-x-------------------------------|
A-55-x-x-x-----x-x-x-----x-x-x-----x-x-x-|
E-----------55-x-x-x--77-x-x-x--33-x-x-x-|

Bridge pt.4
G----------------------------------------|
D----------------------------------------|
A-5555-----------------------------------|
E-------5555-7777-3333--5555555555555555-|

Pre-verse x4
Verse x6
Pre-verse x2
Verse x4
Chorus x4
                 Enjoy! try playing this pretty fast
(this is by the same band who did notu-just those things we just forgot ti add r band name)





Comments


Popular Unsigned tabs & chords
Makeshift - Spiral 1 Bass Tabs
Noize - Immature Bass Tabs
Backyard Wreck-Untitled Tabs
Band-Mourning Death Song-Saddness Tabs
Barely Breathing- Bright Darkness Tabs
Calling Home- A.G.A.W.S. Tabs
Cig- I Want Tabs
Conformity - Parasite Tabs
Guys With Ties- Big Tabs
Ibnh-Riff Tabs


Song lyrics



↑ Back to top | Tablatures and chords are parodies/interpretations of the original songs. You may use it for private study, scholarship, research or language learning purposes only
© 2014 AZChords.com Contact us | Privacy policy | DMCA | Add/correct tabs | Request tabs | Top 50 tabs