» » »

Waiting For A Name Bass tabs (ver.1)

Artists:  A B C D E F G H I J K L M N O P Q R S T U V W X Y Z # 

Waiting For A Name Bass tabs (ver.1)

Unsigned
Rating:
0/5 (0 votes)

Hard to play? Try these video lessons and learn fast.
                G----------------------------------------------------------------------
D-----------------------------------------------------------------------
A-----------------------------------------------------------------------
E--14-14-14-14-14-14-14-14-12-12-12-12-12-12-12-12-


G--------------------------------------------------------------------------------
D---------------------------------------------------------------------------------
A---------------------------------------------------------------------------------
E-5-5-5-5-5-5-5-5-7-7-7-7-7-7-7-7-7-7----0-0-2222-77-55-33-00

G----------------------------------------------------------8------------
D---------6---------555--------------------------------------------------
A-----------------------------------------------------------------------
E-0-----------0-------------0------------2222-33-4-5---12-------

G----------------------------------------------------------------------
D-----------------------------------------------------------------------
A-----------------------------------------------------------------------
E--14-14-14-14-14-14-14-14-12-12-12-12-12-12-12-12-

G----------------------------------------------------------------------
D-----------------------------------------------------------------------
A-----------------------------------------------------------------------
E--14-14-14-14-14-14-14-14-12-12-12-12-12-12-12-12-

G----------------------------------------------------------------------
D-------6------------5--------------------------------------------------
A---------------------------------------------------------6--------------
E-0-----------0-------------0------------2222-33-4-5---12-------

G----------------------------------------------------------------------
D-------------------------------------------6-7-8-3-4-5-----------------------
A-----333333--------------------------------------------1--1-2-7----------
E----------------4------4-----4-----4-------------------------------3-
            
Hard to play? Try these video lessons and learn fast. | Correct




comments powered by Disqus
↑ Back to top | Tablatures and chords are parodies/interpretations of the original songs. You may use it for private study, scholarship, research or language learning purposes only