» » »

Unsigned, Waiste - Sad Inside Tabs (ver.1)

Artists:  A B C D E F G H I J K L M N O P Q R S T U V W X Y Z # 

Waiste - Sad Inside Tabs (ver.1)

Unsigned Tabs
 Rating:
4/5 (4 votes)
Waiste - Sad Inside lessons Tabs too difficult? Try these video lessons and learn fast
                Sad Inside:

intro:
e------------------------------------------------------------------------------------
B------------------------------------------------------------------------------------
G------------------------------------------------------------------------------------
D--7-7-7-7-7-7-7-7-7-7-7-7--7--7-7-7-7-7-7-7-7-7-7-7-7-------------------------------
A-0-0---------8-8---------10-10-----------7-7----------------------------------------
D------------------------------------------------------------------------------------

Chorus:
e------------------------------------------------------------------------------------
B-----------5----5-----12^-----------------------------------------------------------
G-------4--4----4-----0--------------------------------------------------------------
D---2--5--2----2---------------------------------------------------------------------
A--2--5--0----2----------------------------------------------------------------------
D-0--3-------0-----------------------------------------------------------------------

Verse:
e------------------------------------------------------------------------------------
B------------------------------------------------------------------------------------
G-------(9)---6------(7)---4---------------------------------------------------------
D----(9)-----7----(9)-----5----------------------------------------------------------
A-(7)-------7--(7)-------5-----------------------------------------------------------
D----------5------------3------------------------------------------------------------

Live Solo only:
e------------------------------------------------------------------------------------
B--0p5p8-0p5p8-0p58-0p5p8-0p7p10-0p7p10-0p7p10-0p7p10-0p5p8-0p5p8-0p58-0p5p8---------
G------------------------------------------------------------------------------------
D------------------------------------------------------------------------------------
A------------------------------------------------------------------------------------
D------------------------------------------------------------------------------------

e-0p5p8-0p5p8-0p58-0p5p8-0p7p10-0p7p10-0p7p10-0p7p10-0p5p8-0p5p8-0p58-0p5p8B---------
B------------------------------------------------------------------------------------
G------------------------------------------------------------------------------------
D------------------------------------------------------------------------------------
A------------------------------------------------------------------------------------
D------------------------------------------------------------------------------------

Guitar/Vocals: Scott Ozmond
Guitar; Mark Brown
Bass:Scott Gardiner
Drums: Jason Hopkins
            
Submit corrections

comments powered by Disqus
↑ Back to top | Unsigned Tabs for Waiste - Sad Inside. Lyrics for acoustic guitar and electric guitar. Tablatures and chords are parodies/interpretations of the original songs. You may use it for private study, scholarship, research or language learning purposes only