>
 >
Violent Disorder - Cop Killer

Violent Disorder - Cop Killer Guitar Tabs

Unsigned - Violent Disorder - Cop Killer chords, tabs, tablatures, lyrics

Guitar lessons | Add/correct | Request | Top 50 tabs Artists:  A B C D E F G H I J K L M N O P Q R S T U V W X Y Z 0-9

Violent Disorder - Cop Killer Guitar Tabs – Unsigned

CD, Sheet music, Poster

Do you like Violent Disorder - Cop Killer? Share with your friends now
Tabs
Violent Disorder
"Cop Killer"
taken from '4 ways out'-the Kerry Bands cd

tuning: E A D G B E

/ = slide
PM= palm mute
h = hammer on
p = pull off
~ = vibrato
b = bend
r = release
* = harmonic




intro:
E--------------------------------
B--------------------------------
G--------------------------------
D----------9---------------------
A----2----/7--7-----8------------
E-12\0----------8-7-6------------

riff #1:
E---------------------------------------------------------------
B---------------------------------------------------------------
G---------------------------------------------------------------
D---------------------------------------------------------------
A-3-3-3-------------------6-\-3---5-5-5---5-5-5---5-5-5---5-5-5-
E---------3-3-3---6-6-6-----------------------------------------

riff #2:
E---------------------------------------------------------------
B---------------------------------------------------------------
G---------------------------------------------------------------
D---------------------------------------------------------------
A-------------------------3-----------------------3-3-3---5-5-5-
E-3-3-3---6-3-3---3-3-3-----3-3---3-3-3---6-6-6-----------------

riff #3:
E---------------------------------------------------------------
B---------------------------------------------------------------
G---------------------------------------------------------------
D-------------9---7---------------9---7-------------------------
A-7777777777777-9-5-7-7777777777777-9-5-7-----------------------
E---------------7---5---------------7---5-----------------------

E---------------------------------------------------------------
B---------------------------------------------------------------
G---------------------------------------------------------------
D-------------7-------------------------------------------------
A-5555555555555-------------------------------------------------
E---------------------------------------------------------------





Comments


Popular Unsigned tabs & chords
Dimensions End - Desolate Bass Tabs
Funk Riff Bass Tabs
Grey Daze - B Bass Tabs
Lost Youth - Tequilla Sunrise Bass Tabs
Meat - Better Than Nothing Bass Tabs
R33b0rn - Love Bass Tabs
Broken Silence - No Name Tabs
Camel Wrist- Camel Song Tabs
F.A.T.H - Warfield Tabs
Gordo Donoso-Pepe Mar Tabs


Song lyrics



↑ Back to top | Tablatures and chords are parodies/interpretations of the original songs. You may use it for private study, scholarship, research or language learning purposes only
© 2014 AZChords.com Contact us | Privacy policy | DMCA | Add/correct tabs | Request tabs | Top 50 tabs