» » »

Unsigned, Vex - Unknown Song Tabs (ver.1)

Artists:  A B C D E F G H I J K L M N O P Q R S T U V W X Y Z # 

Vex - Unknown Song Tabs (ver.1)

Unsigned Tabs
 Rating:
4/5 (4 votes)
Vex - Unknown Song lessons Tabs too difficult? Try these video lessons and learn fast
                Intro Riff #1

E|----------------------|                                        
B|----------------------|                                        
G|----------------------|                                        
D|---2--2--2----------|Repeat as needed              
A|---1--1--1----------|Slow to Fast                     
E|---3--3--3----------|                                         

Intro Riff #2 / Chorus 

E|-------------------------------------------------------------------------------|
B|-------------------------------------------------------------------------------|
G|-------------------------------------------------------------------------------|R
D|--0--0--0--0--0--0--0----0--0--0--0--0--0--0----0--0--0--0--0--0--0--|
A|--0--0--0--0--0--0--0----0--0--0--0--0--0--0----0--0--0--0--0--0--0--|FAST
E|--0--4--0--6--0--2--0----0--4--0--6--0--2--0----0--4--0--8--0--6--2--|

Verse Riff -  Guitar # 2

E|---------------------------------------------------|
B|---------------------------------------------------|
G|---------------------------------------------------|
D|----2----------2-------2--------2--------2-------|
A|-------1----------1-------1---------1--------1---|
E|--3---------3--------3-------3---------3--------|


Verse Continued
E|-----------------------------------------------------------|
B|-----------------------------------------------------------|
G|------------------------------------------------------------|
D|-----4----------4-----------4----------4----------4------|
A|---------3----------3-----------3----------3----------3--|
E|--5---------5------------5----------5-----------5--------|
            
Submit corrections

comments powered by Disqus
↑ Back to top | Unsigned Tabs for Vex - Unknown Song. Lyrics for acoustic guitar and electric guitar. Tablatures and chords are parodies/interpretations of the original songs. You may use it for private study, scholarship, research or language learning purposes only