>
 >
Vexation - Playing With Aggression

Vexation - Playing With Aggression Guitar Tabs

Unsigned - Vexation - Playing With Aggression chords, tabs, tablatures, lyrics

Guitar lessons | Add/correct | Request | Top 50 tabs Artists:  A B C D E F G H I J K L M N O P Q R S T U V W X Y Z 0-9

Vexation - Playing With Aggression Guitar Tabs – Unsigned

CD, Sheet music, Poster

Do you like Vexation - Playing With Aggression? Share with your friends now
Tabs
Vexation - Playing With Aggression (Adapted Version)

Artist - Kyle Henderson a.k.a Hendo, Scott Grant  


Tuning - EBGDAE

Scott 
E---------12---------|
B-------------12-----|
G------12------------|x4
D--------------------|
A--------------------|
E---12---------------|

Scott
E-------------------------------------|--------------------------------------|
B----------0------------------------0-|----------0-----------------------0---|
G------0--------0-------0---------0---|------0--------0-------0--------------|
D----2---2----2---2---4---------4-----|----2---2----2---2---4---------4------|x4
A-------------------5------3----------|-------------------5------3-----------|
E--0----------------------------------|--0-----------------------------------|

Intro Solo(Hendo)
E------------------------------------7--------7-12p7-----8-7--------------------|
B--7h8---------------7-8-7h8p7---7-8--------8--------8-------10-8-10-8-7--------|
G------9---------7-9-----------9----------9------------9-----------------9-7--9-|
D------------7h9----------------------------------------------------------------|
A-------------------------------------------------------------------------------|
E-------------------------------------------------------------------------------|

E---------------------14h15-14--15------------------15-19p15------------------|
B---------------13-12--------------17------------17----------17---------------|
G---------12-11-------------------------------16----------------16-14--16--12-|
D--7s9----------------------------------14h17---------------------------------|
A-----------------------------------------------------------------------------|
E-----------------------------------------------------------------------------|

E--------------------------------------------------------------------12-13-12h13p12----12-17-|
B--------------------------------10-12-13-12h13p12----------13-13-15----------------15-------|
G---------9-10-9h10p9----9-10-12-------------------14-12-14----------------------------------|
D------10-------------12---------------------------------------------------------------------|
A---12---------------------------------------------------------------------------------------|
E--------------------------------------------------------------------------------------------|

Scott
E----------0---------|
B--------0---0-------|
G------5-------5-----|x3
D----7-----------7---|
A--0---------------0-|
E--------------------|

Scott
E-------------------|   ----|
B-------------------|   ----| THis is the Additional Part
G-------------------|x3 ----| Which is played before entering into
D-----------5--4--3-|   --3-| the Verse 
A-----------3--2--1-|   --1-| 
E--0-0-0-0----------|   ----|

Verse & Bridge 
Both Guitars
E----------------------------------------|
B----------------------------------------|
G----------------------------------------|
D--3---------2---------2-----3---------2-|x2
A--1---------2---------2-----1---------2-|
E----0-0-0-0---0-0-0-0---0-0---0-0-0-0---|

Then...
E---------------------------------------------------------|   ------|
B---------------------------------------------------------|   ------|
G---------------------------------------------------------|   ------|
D-------------------5-4-3---------------2-----------------|x2 ------|
A-----5-5-3---------3-2-1---5-7---------2---------5-----5-|   --3-3-|
E-0-0-3-3-1-0-0-0-0-------0-3-5-0-0-0-0---0-0-0-0-3-0-0-3-|   --1-1-|

Chorus
E-------------------------------------------------------------------------|
B-------------------------------------------------------------------------|
G-------------------------------------------------------------------------|x2
D--2--------4-5-----------4-5-------------------------2---------2---------|
A--0----0-0-2-3-5---------2-3-3----2-2----------------2---------2---------|
E---------------3-----3-3-----1--------3-2----0-0-0-0---0-0-0-0---0-0-0-0-|

Then....
E------------------------------------|
B------------------------------------|
G------------------------------------|
D--------------------------2---------|
A------5-------5-----------2-----3-3-|
E--0-0-3---0-0-3---0-0-0-0---0-0-1-1-|

Main Solo (Hendo)
(Bridge Played Behind)
E-------------------14h15p14----14----------------------------------------14-15-|
B--17b19r17--17b19-----------17----15p14----14-------14h15p14----14-15-17-------|
G----------------------------------------16----16b18----------16----------------|
D-------------------------------------------------------------------------------|
A-------------------------------------------------------------------------------|
E-------------------------------------------------------------------------------|

E--14h15p14----14-15-17-19s21-21p19p17-21p19p17-19p17p15-19p17p15-17p15p14-17p151p14-15p14p12-15p14p12-|
B-----------17-----------------------------------------------------------------------------------------|
G------------------------------------------------------------------------------------------------------|
D------------------------------------------------------------------------------------------------------|
A------------------------------------------------------------------------------------------------------|
E------------------------------------------------------------------------------------------------------|

E---15b17--15b17---------------------------------------------------|
B---15b17--15b17---15b17--17--15p13--------13s12-12-12-12s10-10-10-|
G------------------------------------14----------------------------|
D------------------------------------------------------------------|
A------------------------------------------------------------------|
E------------------------------------------------------------------|

E-------------------------------------------------------|
B--10s12-12-12-12s8-8-8-8s10-10-10-10s5-5-5-5s3-3-3-3s5-|
G-------------------------------------------------------|
D-------------------------------------------------------|
A-------------------------------------------------------|
E-------------------------------------------------------|

E---------------------------------------------------------------------------------------|
B------------------------------------------------10-------10-12----10-12-13-10-12-13s15-|
G----------------------------------------9-11-12----11-12-------12----------------------|
D---------7------7-9----7-9-10-7-9-10s12------------------------------------------------|
A--7-9-10---9-10-----10-----------------------------------------------------------------|
E---------------------------------------------------------------------------------------|

E--12h15p12----12h15p12----12h15p12----12h17p12----12h17p12----12h17p12----17b19-17b19-17b19-|
B-----------15----------15----------15----------15----------15----------15-------------------|
G--------------------------------------------------------------------------------------------|
D--------------------------------------------------------------------------------------------|
A--------------------------------------------------------------------------------------------|
E--------------------------------------------------------------------------------------------|

Vexation is: Scott Grant (Lead Vocals & Rhythm Guitar)
             Kyle Henderson (Backing Vocals & Lead Guitar)
             Neill Davidson (Backing Vocals & Bass Guitar) 
             Nikki Pirie (Drums)
             Metallica & Pantera Rules...\m/





Comments


Popular Unsigned tabs & chords
Midnight Stalker - Lose You Bass Tabs
Notu - I Want You Back Bass Tabs
Paul Pichon - Pitch Bright Eyes Bass Tabs
The Rad Tomcats - Free Me Bass Tabs
Vex - Opposites Attract Bass Tabs
Ace-Untitled Tabs
Arrow - Ego Tabs
Dagahzed- Psychological Downer Tabs
Deathstruction- For You Tabs
Goo-Goo-Ga-Joob: Tabs


Song lyrics



↑ Back to top | Tablatures and chords are parodies/interpretations of the original songs. You may use it for private study, scholarship, research or language learning purposes only
© 2014 AZChords.com Contact us | Privacy policy | DMCA | Add/correct tabs | Request tabs | Top 50 tabs