» » »

Unsigned, Vetala - 10 Men Tabs (ver.1)

Artists:  A B C D E F G H I J K L M N O P Q R S T U V W X Y Z # 

Vetala - 10 Men Tabs (ver.1)

Unsigned Tabs
Rating:
0/5 (0 votes)
Vetala - 10 Men lessons Tabs too difficult? Try these video lessons and learn fast
                Vetala - 10 men

intro
E: -----------------------------------------------------------}
B: ---------15------------------------------------------------}
G: ------14----14-15----------15/17\15-14-12-14b15r14---------} x1
D: ---12----------------12-15---------------------------------}
A: ------------------13---------------------------------------}
D: -----------------------------------------------------------}


E: ----------------------------------------------------------------------}
B: ----------------------------------------------------------------------}
G: -------15-14------12-11-----12-11-12-11-12/14-----12-11----9----------}
D: ---12---------12---------12---------------------9-------12---12-9-7-9~}X1
A: ----------------------------------------------------------------------}
D: ----------------------------------------------------------------------}

E: ---------------------------------------------}
B: ---------------------------------------------}
G: -----9/12\11~-----------9/12\11-7-9-7--------} x2
D: ---9------------9~----9---------------9---9~-}
A: -7------------------7-------------------7----}
D: ---------------------------------------------}

E: -----------------------------------------}
B: -----------------------------------------}
G: -------9/12\11----------9/12\11-7-9------} X2
D: ---9---------------9---------------------}
A: -7---7-----------7---7-------------------}
D: -----------------------------------------}

Verse
E: -------------------------------------}
B: -------------------------------------}
G: -------------------------------------} x whatever
D: ------9---9/10\9-------12----10-9-7--}  !to go into chorus finish 10th 
A: ----7---7--------12-10----10---------}   fret on A string instead of 7th
D: -------------------------------------}   fret on higher D string! 
          

Chorus
E: ----------------------------------------}
B: ----------------------------------------}
G: ----7-7-7---------------5-5-5-5-5-5-5---} x4
D: --0-7-7-7-5-5-8-8-5-5-5-5-5-5-5-5-5-5---}  
A: --0-5-5-5-5-5-8-8-5-5-5-3-3-3-3-3-3-3---}  
D: --0-------5-5-8-8-5-5-5-----------------}   

Repeat verse

Chorus

Repeat chorus loads of times with amazing solo over the top (solo in G)

End.

A new song from Vetala..... amazing!
            

comments powered by Disqus
↑ Back to top | Unsigned Tabs for Vetala - 10 Men. Lyrics for acoustic guitar and electric guitar. Tablatures and chords are parodies/interpretations of the original songs. You may use it for private study, scholarship, research or language learning purposes only