» » »

Unsigned, Veedin - Outside Your Door Tabs (ver.1)

Artists:  A B C D E F G H I J K L M N O P Q R S T U V W X Y Z # 

Veedin - Outside Your Door Tabs (ver.1)

Unsigned Tabs
 Rating:
4/5 (4 votes)
Veedin - Outside Your Door lessons Tabs too difficult? Try these video lessons and learn fast
1
                This is one of my personal favorites although I love basicly all my band songs
This song will be on the Album Speed Killz which will be put into production in June 2003.

Standard Tuning

Intro
----------------------------------------------------|
-----5-----5-----5-----5-----5-----5-----5----------|
---6-----6-----6-----6-----6-----6-----6----6-------|
-7-----5-----0-----7-----7-----5-----0----7---------|
----------------------------------------------------|
----------------------------------------------------|

Solo
-------------------------------------------|-----------------------------------
-------------------------------------------|-----------------------------------
--12\11-11-9-9-11-11/12\11-12\11-11-9-9-7--|-----------------------------------
-------------------------------------------|-----------------------------------
-------------------------------------------|-----------------------------------
-------------------------------------------|-----------------------------------

Chorus
------------------------------------------|-----------------------------------------|
------------------------------------------|-----------------------------------------|
-5-555555-7-777777--22-0----22-0----2-0---|--------------------22-0----22-0----2-0--|
-3-333333-5-555555--00-0-22-00-0-22-0-0-2-|-5-555555-7-777777--00-0-22-00-0-22-0-0-2|
-------------------------00------00-----0-|-3-333333-5-555555-------00------00-----0|
------------------------------------------|-----------------------------------------|
            
Submit corrections

comments powered by Disqus
↑ Back to top | Unsigned Tabs for Veedin - Outside Your Door. Lyrics for acoustic guitar and electric guitar. 1 Tablatures and chords are parodies/interpretations of the original songs. You may use it for private study, scholarship, research or language learning purposes only