» » »

Unsigned, Untitled - High Five Guy Bass tabs (ver.1)

Artists:  A B C D E F G H I J K L M N O P Q R S T U V W X Y Z # 

Untitled - High Five Guy Bass tabs (ver.1)

Unsigned Tabs
Rating:
0/5 (0 votes)
Hard to play? Try these video lessons and learn fast.
                Verse
G|-----------------------|
D|-----------------------|
A|----------9999-7777----|
E|0000-7777--------------|

Chorus (Pt. 1)
G|-----------------------------------|
D|-----------------------------------|
A|----------------5-5-555-7-7-777----|
E|5-5-555-7-7-777--------------------|

Chorus (Pt. 2)
G|-----------------------|
D|-----------------------|
A|------------55----77---|
E|55----77---------------|

Transition
G|-----------------------|
D|-----------------------|
A|------------5----------|
E|0H5---7----------------|

Interlude
G|------------------------------------|
D|------------------------------------|
A|--------7-7-777---------------------|
E|5-5-555---------7-7-777-9-9-999-----|

G|------------------------------------|
D|------------------------------------|
A|--------7-7-777---------------------|
E|5-5-555---------7-7-777/3-3-333-----|

Bridge
G|------------------------------------------------------------|
D|------------------------------------------------------------|
A|55555555----------------------------------------------------|
E|------------55555555-77777777-33333333----------------------|

End
G|--------------------------------------|
D|--------------------------------------|
A|-----9/7------------------------------|
E|0H7-----------------------------------|

*Sibley
            

comments powered by Disqus
↑ Back to top | Unsigned Bass for Untitled - High Five Guy. Lyrics for acoustic guitar and electric guitar. Tablatures and chords are parodies/interpretations of the original songs. You may use it for private study, scholarship, research or language learning purposes only