» » »

Unnamed - Alone Bass tabs (ver.1)

Artists:  A B C D E F G H I J K L M N O P Q R S T U V W X Y Z # 

Unnamed - Alone Bass tabs (ver.1)

Unsigned
Rating:
0/5 (0 votes)

Hard to play? Try these video lessons and learn fast.
                Intro (Rest for 2 bars)

|-----------------------------------------------------------------|
|-----------------------------------------------------------------|
|-5-------------5-------------------------------------------------|
|-----------------3-------------3-0-------------0-5-------------5-|

|-----------------------------------------------------------------| x6
|-----------------------------------------------------------------|
|-5-5-5-5-5-5-5-5-------------------------------------------------|
|-----------------3-3-3-3-3-3-3-3-0-0-0-0-0-0-0-0-5-5-5-5-5-5-5-5-|

Verse 1

|-----------------------------------------------------------------| x4
|-----------------------------------------------------------------|
|-5-5-5-5-5-5-5-5-----------------3-3-3-3-3-3-3-3-----------------|
|-----------------5-5-5-5-5-5-5-5-----------------3-3-5-5-3-3-5-5-|

Chorus 1

|-----------------------------------------------------------------| x4
|-----------------------------------------------------------------|
|-5-5-5-5-5-5-5-5-------------------------------------------------|
|-----------------3-3-3-3-3-3-3-3-0-0-0-0-0-0-0-0-5-5-5-5-5-5-5-5-|

Verse 2

|-----------------------------------------------------------------| x4
|-----------------------------------------------------------------|
|-5-5-5-5-5-5-5-5-----------------3-3-3-3-3-3-3-3-----------------|
|-----------------5-5-5-5-5-5-5-5-----------------3-3-5-5-3-3-5-5-|

Chorus 2

|-----------------------------------------------------------------| x4
|-----------------------------------------------------------------|
|-5-5-5-5-5-5-5-5-------------------------------------------------|
|-----------------3-3-3-3-3-3-3-3-0-0-0-0-0-0-0-0-5-5-5-5-5-5-5-5-|

Drum Solo

|-----------------------------------------------------------------| x2
|-----------------------------------------------------------------|
|-5-5-5-5-5-5-5-5-5-5-5-5-5-5-5-5-5-5-5-5-5-5-5-5-5-5-5-5-5-5-5-5-|
|-----------------------------------------------------------------|

Post Solo and Chorus 3

|-----------------------------------------------------------------| x6
|-----------------------------------------------------------------|
|-5-5-5-5-5-5-5-5-------------------------------------------------|
|-----------------3-3-3-3-3-3-3-3-0-0-0-0-0-0-0-0-5-5-5-5-5-5-5-5-|
            
Hard to play? Try these video lessons and learn fast. | Correct




comments powered by Disqus
↑ Back to top | Tablatures and chords are parodies/interpretations of the original songs. You may use it for private study, scholarship, research or language learning purposes only