>
 >
Unknown - Stay 2 Gether For The Kids

Unknown - Stay 2 Gether For The Kids Guitar Tabs

Unsigned - Unknown - Stay 2 Gether For The Kids chords, tabs, tablatures, lyrics

Guitar lessons | Add/correct | Request | Top 50 tabs Artists:  A B C D E F G H I J K L M N O P Q R S T U V W X Y Z 0-9

Unknown - Stay 2 Gether For The Kids Guitar Tabs – Unsigned

CD, Sheet music, Poster

Do you like Unknown - Stay 2 Gether For The Kids? Share with your friends now
Tabs
good song better when we do it

Main Riff
-|------------------------------------------------------------------------------------    
-|------------------------------------------------------------------------------------
-|------------------------------------------------------------------------------------
-|---0---7-0---4-0---0---7-0---4-0---0---4-0---5-0---2-----4-5-4-2-0------------------
-|-5---5-----5-----4---4-----4-----2---2-----2-----0---0------------------------------  x2
-|------------------------------------------------------------------------------------                                                                              
Verse
-|----------------------------------------------------------------------------
-|----------------------------------------------------------------------------
-|----3----3----3----3-----3----3----3----3-----------------------------------
-|----2----2----2----2-----2----2----2----2-----------------------------------
-|00----00---00---00-----22---22---22---22------------------------------------
-|----------------------------------------------------------------------------
                                                                              

-|----------------------------------------------------------------------------
-|----------------------------------------------------------------------------
-|----3----3----3----3-----5----5----2----2-----------------------------------
-|----2----2----2----2-----4----4----2----2-----------------------------------
-|00----00---00---00-----00-- 00---00---00------------------------------------
-|----------------------------------------------------------------------------  x2

Chorus
-|-------------------------------------------------------------------
-|-------------------------------------------------------------------
-|-------------------------------------------------------------------  
-|-555555555555555---555555555555555---------------------------------
-|-555555555555555---555555555555555---------------------------------
-|-333333333333333---222222222222222-0-2----------------------------- x4

end on:                                                          
-|---|------------------------------------------------------------------------
-|---|------------------------------------------------------------------------
-|---|------------------------------------------------------------------------
-|-5-|------------------------------------------------------------------------
-|-5-|------------------------------------------------------------------------
-|-3-|------------------------------------------------------------------------


                                                                              
Bridge  
* = distortion on
OK, This is the way we play it

-|----------------------------------------------------------------------------
-|----------------------------------------------------------------------------
-|7-7-9--7--7--9--7-7-9--7--7--999999-----------------------------------------
-|7-7-9--7--7--7--7-7-9--7--7--777777-----------------------------------------
-|5-5-7--5--5--7--5-5-7--5--5--777777-----------------------------------------
-|----------------------------------------------------------------------------

Variation:
-|----------------------------------------|------|
-|----------------------------------------|------|
-|----------------------------------------|--9---|  
-|-555555555555555------555555555555555---|--7---|
-|-555555555555555------555555555555555---|--0---|
-|-333333333333333-0----222222222222222-0-|------|





Comments


Popular Unsigned tabs & chords
Near 10 - Amends Bass Tabs
Notu - Just Those Things Bass Tabs
The Accidentals - Travis Song Bass Tabs
This Falling Star - For U Bass Tabs
Vanair - The Consequences... Bass Tabs
Broom Stick Get Away-Instumental Chaos Tabs
Fish Mitten - M Tabs
Fondling Amber- Words Of Wisdom Tabs
Kudrna-Loser With A Dream Tabs
Long Walk Home- All The Attention... Tabs


Song lyrics



↑ Back to top | Tablatures and chords are parodies/interpretations of the original songs. You may use it for private study, scholarship, research or language learning purposes only
© 2014 AZChords.com Contact us | Privacy policy | DMCA | Add/correct tabs | Request tabs | Top 50 tabs