» » »

Unsigned, Unknown - Song One Tabs (ver.1)

Artists:  A B C D E F G H I J K L M N O P Q R S T U V W X Y Z # 

Unknown - Song One Tabs (ver.1)

Unsigned Tabs
Rating:
0/5 (0 votes)
Unknown - Song One lessons Tabs too difficult? Try these video lessons and learn fast
                part one
E|----------------------------------|
B|----------------------------------|
G|----------------------------------|
D|-----9-------9-------9-------9----|
A|---9---9---9---9---9---9---9---9--|
E|-7-------7-------8-------8--------|
   1 e + a 2 e + a 3 e + a 4 e + a

part two
E|----------------------------------|
B|----------------------------------|
G|----------------------------------|
D|-----9-------7-------4-------5----|
A|---9-------7-------4-------5------|
E|-7-------5-------2-------3--------|
   1 + a   2 + a   3 + a   4 + a

part three
E|----------------------------------|
B|----------------------------------|
G|----------------------------------|
D|-9-9-9-9-9-9-9-9-7-7-7-7-7-7-7-7--|
A|-9-9-9-9-9-9-9-9-7-7-7-7-7-7-7-7--|
E|-7-7-7-7-7-7-7-7-5-5-5-5-5-5-5-5--|
   1 e + a 2 e + a 3 e + a 4 e + a

E|----------------------------------|
B|----------------------------------|
G|----------------------------------|
D|-4-4-4-4-4-4-4-4-5-5-5-5-5-5-5-5--|
A|-4-4-4-4-4-4-4-4-5-5-5-5-5-5-5-5--|
E|-2-2-2-2-2-2-2-2-3-3-3-3-3-3-3-3--|
   1 e + a 2 e + a 3 e + a 4 e + a

part four
E|----------------------------------|
B|----------------------------------|
G|----------------------------------|
D|-----9-------7-------5-------4----|
A|---9-------7-------5-------4------|
E|-7-------5-------3-------2--------|
   1 e + a 2 e + a 3 e + a 4 e + a   

E|----------------------------------|
B|----------------------------------|
G|----------------------------------|
D|-----3---2------------------------|
A|---3-----2------------------------|
E|-1-------0------------------------|
   1 e + a 2 e + a 3 e + a 4 e + a
            

comments powered by Disqus
↑ Back to top | Unsigned Tabs for Unknown - Song One. Lyrics for acoustic guitar and electric guitar. Tablatures and chords are parodies/interpretations of the original songs. You may use it for private study, scholarship, research or language learning purposes only