» » »

Unsigned, Unknown - Rampant Constapation Tabs (ver.1)

Artists:  A B C D E F G H I J K L M N O P Q R S T U V W X Y Z # 

Unknown - Rampant Constapation Tabs (ver.1)

Unsigned Tabs
Rating:
0/5 (0 votes)
Hard to play? Try these video lessons and learn fast.
                |----------------0--------------------3-------
|------------0---------------------0----------
|-------------------2---3---------------------
|---------3-1-------4--------6---3------------
|-0---4----------9-----3-5----------6---------
|---4--------7-8-------3----------------4----- 

|----------------0--------------------3-------
|------------0---------------------0----------
|-------------------2---3---------------------
|---------3-1-------4--------6---3------------
|-0---4----------9-----3-5----------6---------
|---4--------7-8-------3----------------4----- 

|----------------0--------------------3-------
|------------0---------------------0----------
|-------------------2---3---------------------
|---------3-1-------4--------6---3------------
|-0---4----------9-----3-5----------6---------
|---4--------7-8-------3----------------4----- 

|----------------0--------------------3-------
|------------0---------------------0----------
|-------------------2---3---------------------
|---------3-1-------4--------6---3------------
|-0---4----------9-----3-5----------6---------
|---4--------7-8-------3----------------4----- 

|----------------0--------------------3-------
|------------0---------------------0----------
|-------------------2---3---------------------
|---------3-1-------4--------6---3------------
|-0---4----------9-----3-5----------6---------
|---4--------7-8-------3----------------4----- 

|----------------0--------------------3-------
|------------0---------------------0----------
|-------------------2---3---------------------
|---------3-1-------4--------6---3------------
|-0---4----------9-----3-5----------6---------
|---4--------7-8-------3----------------4----- 

|----------------0--------------------3-------
|------------0---------------------0----------
|-------------------2---3---------------------
|---------3-1-------4--------6---3------------
|-0---4----------9-----3-5----------6---------
|---4--------7-8-------3----------------4----- 

|----------------0--------------------3-------
|------------0---------------------0----------
|-------------------2---3---------------------
|---------3-1-------4--------6---3------------
|-0---4----------9-----3-5----------6---------
|---4--------7-8-------3----------------4----- 


Repeat For A Long Time...
            

comments powered by Disqus
↑ Back to top | Unsigned Tabs for Unknown - Rampant Constapation. Lyrics for acoustic guitar and electric guitar. Tablatures and chords are parodies/interpretations of the original songs. You may use it for private study, scholarship, research or language learning purposes only