» » »

Unknown - Pitiful Darkness Tabs (ver.1)

Artists:  A B C D E F G H I J K L M N O P Q R S T U V W X Y Z # 

Unknown - Pitiful Darkness Tabs (ver.1)

Unsigned
Rating:
0/5 (0 votes)

Hard to play? Try these video lessons and learn fast.
                Riff 1
e|--------------------------------------------------------------------------|
B|--------------------------------------------------------------------------|
G|-----------0-----0-----0-----------0-----0-----0-----------0-----0-----0--|
D|--------9-----------9-----------7-----------7-----------5-----------5-----|
A|-----7--------7--------------5--------5--------------3--------3-----------|
E|--0-----------------------0-----------------------0-----------------------|

Riff 1a
e|--------------------|
B|--------------------|
G|--------------------|
D|--------0--------0--|
A|-----5--------9-----|
E|--3--------7--------|


Riff 2
e|-------------------------------------------------------------------------
B|-------------------------------------------------------------------------
G|-----------0-----0-----0-----------0-----0-----0-----------0----0-----0--
D|--------5-----------5-----------4-----------4-----------2----------2-----
A|-----7--------7--------------5--------5--------------3-------3-----------
E|--0-----------------------0-----------------------0----------------------

e|--------------------|
B|--------------------|
G|--------------------|
D|--------0--------0--|
A|-----2--------4-----|
E|--3--------5--------|

Riff 1b
e|--------------------|
B|--------------------|
G|--------------------|
D|--------0--------0--|
A|-----4--------2-----|
E|--5--------3--------|

Riff 3                                 Play 4 times
e|-------------------------------------------------|-----------------------------
B|-------------------------------------------------|-----------------------------
G|o-----------------------------------------------o|-----------------------------
D|o--------2--------2-----2--------0-----------0--o|--------2-----------2--------
A|------2--------2--------------2-----------0------|-----2-----2-----2-----2-----
E|---0--------0--------0-----3--------0--2---------|--0-----------0-----------3--

e|--------------------------------------------|
B|--------------------------------------------|
G|--------------------------------------------|
D|-----5-----------7-----------0-----0-----0--|
A|--5-----5-----7-----7-----------------------|
E|-----------5-----------0--2-----3-----2-----|

Riff 4                Play 4 times
e|-------------------------------|
B|-------------------------------|
G|o-----------------------------o|
D|o--2-2-2-2-5-2-2-2-2-3\4-3\4--o|
A|---2-2-2-2-5-2-2-2-2-3\4-3\4---|
E|---0-0-0-0-3-0-0-0-0-1\2-1\2---|

Playing order:
- Riff 1
- Riff 1a
- Riff 2
- Riff 1
- Riff 1a
- Riff 2
- Riff 1
- Riff 1b
- Riff 3
- Riff 4
- Riff 1
- Riff 1a
            
Hard to play? Try these video lessons and learn fast. | Correct




comments powered by Disqus
↑ Back to top | Tablatures and chords are parodies/interpretations of the original songs. You may use it for private study, scholarship, research or language learning purposes only