» » »

Unsigned, Unknown - Nothing Accomplished Tabs (ver.1)

Artists:  A B C D E F G H I J K L M N O P Q R S T U V W X Y Z # 

Unknown - Nothing Accomplished Tabs (ver.1)

Unsigned Tabs
Rating:
0/5 (0 votes)
Unknown - Nothing Accomplished lessons Tabs too difficult? Try these video lessons and learn fast
                Intro - 2X

e-----------------------------------------------------
B-----------------------------------------------------
G----0---0-----0-0-0----------------------------------
D---2---2-2---0---------------------------------------
A--0---3-----3--2-3-0---------------------------------
E-----------------------------------------------------

Verse 1 & 2

e------------------------------
B------0------0------0-------------------
G---------------------0h2----------------
D----2---2--2---2--0-----0---------------
A---0------3------2-------2--------------
E----------------------------------------

Chorus

e------3-------3-------3-2-2------------2-------3-------
B-------3-------3---------3-3------------3-0-----3------
G----0---0---0---0-----------0--------------------0-----
D----0-------0-------0------------------------2---------
A---2-------2-------0-----------0-2h3-0-----------------
E--0-------3-------2--------------------------------0---

Thats all we have right now but when we finish we'll put it on here
            
Submit corrections

comments powered by Disqus
↑ Back to top | Unsigned Tabs for Unknown - Nothing Accomplished. Lyrics for acoustic guitar and electric guitar. Tablatures and chords are parodies/interpretations of the original songs. You may use it for private study, scholarship, research or language learning purposes only