» » »

Unsigned, Unknown - Kyles Ass Tabs (ver.1)

Artists:  A B C D E F G H I J K L M N O P Q R S T U V W X Y Z # 

Unknown - Kyles Ass Tabs (ver.1)

Unsigned Tabs
 Rating:
4/5 (4 votes)
Unknown - Kyles Ass lessons Tabs too difficult? Try these video lessons and learn fast
                E|-------------------------------------------------------------------||
B|-------------------------------------------------------------------||intro
G|-------------------------------------------------------------------||
D|5-5-5-5---------3-3-3-3-----------------------------------||
A|3-3-3-3-7-7-7-7-1-1-1-1-3-3-3-3-------------------------------------||
E|--------5-5-5-5---------1-1-1-1----------------------------------||

E|-------------------------------------------------------------------||
B|-------------------------------------------------------------------||
G|-------------------------------------------------------------------||verse(x3)
D|--------3-3-3-3------------------------------------------------||
A|2-2-2-2-1-1-1-1-5-5-5-5-3-3-3-3------------------------------------||
E|0-0-0-0---------3-3-3-3-1-1-1-1------------------------------||

E|----------------------------------||
B|----------------------------------||
G|----------------------------------||
D|5-5-5-5-5-5-5-5-5-5-5-5-5-5-5-5-5-5||chorus(x2)
A|3-3-3-3-3-3-3-3-3-3-3-3-3-3-3-3-3-3||
E|----------------------------------||
            
Submit corrections

comments powered by Disqus
↑ Back to top | Unsigned Tabs for Unknown - Kyles Ass. Lyrics for acoustic guitar and electric guitar. Tablatures and chords are parodies/interpretations of the original songs. You may use it for private study, scholarship, research or language learning purposes only