» » »

Un Itled Tabs (ver.1)

Artists:  A B C D E F G H I J K L M N O P Q R S T U V W X Y Z # 

Un Itled Tabs (ver.1)

Unsigned
Rating:
0/5 (0 votes)

Hard to play? Try these video lessons and learn fast.
                Purple Headed Yogurt Slingers
"Un'tit'led"

Play this song on acoustic

E-----------------
B-----------------
G-----------------
D---2---2---2---2-
A--0---0---0---0--
e-0---0---0---0---

E-----------------
B-----------------
G-----------------
D---2---2---2---2-
A--3---3---3---3--
e-0---0---0---0---

E-----------------
B-----------------
G-----------------
D---0---0---0---0-
A--2---2---2---2--
e-3---3---3---3---

E-----------------
B-----------------
G-----------------
D---0---0---0---0-
A--0---0---0---0--
e-2---2---2---2---
just play this over and over until you get sick of it. its not 
complicated since it took me a few minutes to make up. but i think it 
sounds good. play it if you want.
            
Hard to play? Try these video lessons and learn fast. | Correct




comments powered by Disqus
↑ Back to top | Tablatures and chords are parodies/interpretations of the original songs. You may use it for private study, scholarship, research or language learning purposes only