» » »

Unsigned, Unarmed - We Are Killing Ourselves Bass tabs (ver.1)

Artists:  A B C D E F G H I J K L M N O P Q R S T U V W X Y Z # 

Unarmed - We Are Killing Ourselves Bass tabs (ver.1)

Unsigned Tabs
 Rating:
4/5 (4 votes)
Unarmed - We Are Killing Ourselves lessons Tabs too difficult? Try these video lessons and learn fast
1
                chorus  p1             p2
|-----------------|-----------------|
|-----------------|-----------------|
|44420002----2222-|444200027777-----|
|--------0000-----|------------7777-|

bridge part (goes with chorus)
|---------------------------------------------------------------------|
|---------------------------------------------------------------------|
|6--6--8--6--4--------8--6--8--9--9--8--6--8--4--4-11-11--9--9--8--8--|
|---------------2--2--------------------------------------------------|
|4--4--6--4--2--0--0--6--4--6--7--7--6--4--6--2--2--9--9--7--7--6--6--|
|---------------------------------------------------------------------|

verse     x3               x1
|-----------------|--------------------|
|-----------------|--------------------|
|4444-------------|--------22222222-(4)|
|----444455552222-|00000000------------|

order
p1 p2 p1 p2              fast
pause                    
ch1. p1      x4          slow
verse1.                  slow
p1 p2                    slow
br. p1 p2 p1 p2          slow    (no octave solo)
pause
ch1. p1      x4          fast
ch2. p1 p2               fast
p1 p2 p1 p2              fast
verse2.                  fast
br. p1p2     x3          slow    (w/ octave solo during last p1p2)
            
Submit corrections

comments powered by Disqus
↑ Back to top | Unsigned Bass for Unarmed - We Are Killing Ourselves. Lyrics for acoustic guitar and electric guitar. 1 Tablatures and chords are parodies/interpretations of the original songs. You may use it for private study, scholarship, research or language learning purposes only