» » »

Ultimately Renounced - About A Girl Tabs (ver.1)

Artists:  A B C D E F G H I J K L M N O P Q R S T U V W X Y Z # 

Ultimately Renounced - About A Girl Tabs (ver.1)

Unsigned
Rating:
0/5 (0 votes)

Hard to play? Try these video lessons and learn fast.
                (Intro/Verse Pt. 1)
|-------|-------|-------|----------
|-------|-------|-------|----------
|-------|-------|-------|----------
|---2---|---5---|---7---|---8------
|---2---|---5---|---7---|---8------
|---0---|---3---|---5---|---6------
                                                  
(Intro/Verse Pt. 2)
|-------|-------|-------|----------
|-------|-------|-------|----------
|-------|-------|-------|----------
|---2---|---5---|---7---|---5------
|---2---|---5---|---7---|---5------
|---0---|---3---|---5---|---3------

(Chorus)                                                  
|-------/-------|
|-------/-------|
|-------/-------|
|---7---/---8---|
|---7---/---8---|
|---5---/---6---|
            
Hard to play? Try these video lessons and learn fast. | Correct




comments powered by Disqus
↑ Back to top | Tablatures and chords are parodies/interpretations of the original songs. You may use it for private study, scholarship, research or language learning purposes only