» » »

Unsigned, Twisted Perspectiv - Dirt Tabs (ver.1)

Artists:  A B C D E F G H I J K L M N O P Q R S T U V W X Y Z # 

Twisted Perspectiv - Dirt Tabs (ver.1)

Unsigned Tabs
 Rating:
4/5 (4 votes)
Twisted Perspectiv - Dirt lessons Tabs too difficult? Try these video lessons and learn fast
                Intro light
e-----------14-----------------14---------14---------------
b-------------------17------------16--------------14-----
g---------------------------------------------------
d------------------------------------------------
a---------------------------------------------------
E----------------------------------------------------
Into heavy /chorus
e----0-1-0-4-----0-1-0-3-------0-1-0-4------0-1-0-3-0-----------------
b----0-1-0-4-----0-1-0-3-------0-1-0-4------0-1-0-3-0-----------------
g----0-1-0-4-----0-1-0-3-------0-1-0-4------0-1-0-3-0-----------------
d------------------------------------------------
a---------------------------------------------------
E----------------------------------------------------
 
VERSE 
e----------------------------------------------------
b------------10-------------------10-------------------
g-------------------11-----10------------11-------12--------
d------------------------------------------------
a---------------------------------------------------
E----------------------------------------------------
Interlude 1
e-----4----------4----------4-------------4--------------
b----------3-----------5-----------3--------------4----
g---------------------------------------------------
d------------------------------------------------
a---------------------------------------------------
E----------------------------------------------------
INTERLUDE 2
e----------------------------------------------------
b--------------------------------------------7------
g---------------------------------------------------
d----0--1--0--2--0--1--0--2--------------5-------------------
a-----0--1--0--2--0--1--0--2---------------------------------
E-----0--1--0--2--0--1--0--2---------------------------------
 
OUTRO
e----------------------------------------------------
b--------------------------------------------------
g---------------------------------------------------
d------------------------------------------------
a----7-7-7-7-8-8-8-8-7-7-7-7-8-8-8-8--------------------------------
E----6-6-6-6-7-7-7-7-6-6-6-6-7-7-7-7---------------------------------
            
Submit corrections

comments powered by Disqus
↑ Back to top | Unsigned Tabs for Twisted Perspectiv - Dirt. Lyrics for acoustic guitar and electric guitar. Tablatures and chords are parodies/interpretations of the original songs. You may use it for private study, scholarship, research or language learning purposes only