>
 >
Twinkle Twinkle Little Star

Twinkle Twinkle Little Star Bass Tabs

Unsigned - Twinkle Twinkle Little Star chords, tabs, tablatures, lyrics

Guitar lessons | Add/correct | Request | Top 50 tabs Artists:  A B C D E F G H I J K L M N O P Q R S T U V W X Y Z 0-9

Twinkle Twinkle Little Star Bass Tabs – Unsigned

CD, Sheet music, Poster

Do you like Twinkle Twinkle Little Star? Share with your friends now
Bass Tabs

*= let ring

  
G|----------14--14--16-1614*--12--12--11--11--9--97*- 
D|-12--12----------------------------------------------
A|-----------------------------------------------------
E|-----------------------------------------------------

G|--14--14--12--12--11-11--9*--14--14--12--12--11-119*
D|-----------------------------------------------------
A|-----------------------------------------------------
E|-----------------------------------------------------

G|----------14--14--16-1614*--12--12--11--11--9--97*- 
D|-12--12----------------------------------------------
A|-----------------------------------------------------
E|-----------------------------------------------------

please rate this tab it's my first one.





Comments


Popular Unsigned tabs & chords
Aaron Doyle - I Dont Like People Who Are Bass Tabs
Kanser - Its Bassic Bass Tabs
Apu - She Is Tabs
Arrow - Ego Tabs
Chloie Tabs
Dagahzed- Inconceived Tabs
Fernands Band - Punkers Tabs
Jfd&Jtb - Song 001 Tabs
Jfd- Riffs Tabs
Jim And Jon - Ravioli Tabs


Song lyrics



↑ Back to top | Tablatures and chords are parodies/interpretations of the original songs. You may use it for private study, scholarship, research or language learning purposes only
© 2014 AZChords.com Contact us | Privacy policy | DMCA | Add/correct tabs | Request tabs | Top 50 tabs