» » »

Twice Bitten - Fault Tabs (ver.1)

Artists:  A B C D E F G H I J K L M N O P Q R S T U V W X Y Z # 

Twice Bitten - Fault Tabs (ver.1)

Unsigned
Rating:
0/5 (0 votes)

Tabs too difficult? Try these video lessons and learn fast.
                Twice Bitten
"Fault"
taken from '4 ways out'-the Kerry Bands cd

tuning: E A D G B E

/ = slide
PM= palm mute
h = hammer on
p = pull off
~ = vibrato
b = bend
r = release
* = harmonic
x = mute
. = pick slide

intro:
E----------------------------------------------------------------------
B----------------------------------------------------------------------
G----------------------------------------------------------------------
D----------------------------------------------------------------------
A-2-----2-----2-----2-----2---5---8-----8-----8-----8-----8---5--------
E-0000000000000000000000000000333366666666666666666666666666663333-----


E----------------------------------------------------------------------
B----------------------------------------------------------------------
G----------------------------------------------------------------------
D----------------------------------------------------------------------
A-2-----2-----2-----2-----2---5---8-----8-----8-----8-----8---5---2----
E-00000000000000000000000000003333666666666666666666666666666633330----

verse riff:
E----------------------------------
B----------------------------------
G----------------------------------
D-------/s\---/s\-------/s\--------
A-2---2-454-xx454-8-xx8-454-xx454--
E-0-000-232-xx232-6-xx6-232-xx232--

alt verse ending:
E----------------------------------------------------------------------
B----------------------------------------------------------------------
G----------------------------------------------------------------------
D-------/s\---/s\------------------------------------------------------
A-2---2-454-xx454-8------------5-2--------------------pick slide-------     
E-0-000-232-xx232-6------------3-0------------------...................

Chorus riff:
E--------------------------
B--------------------------
G--------------------------
D--------------------------
A-2-xx9-9-xx8-8-xx5-5-4-5--     
E-0-xx7-7-xx6-6-xx3-3-2-3--


order of riffs:

intro x2
verse riff x3
alt verse ending x1
-break-
Chorus riff x4
-break-
Chorus riff x4
intro x1
verse riff x3
alt verse ending x1
            
Tabs too difficult? Try these video lessons and learn fast.




comments powered by Disqus
↑ Back to top | Tablatures and chords are parodies/interpretations of the original songs. You may use it for private study, scholarship, research or language learning purposes only