>
 >
Turmoils End--Running

Turmoils End--Running Guitar Tabs

Unsigned - Turmoils End--Running chords, tabs, tablatures, lyrics

Guitar lessons | Add/correct | Request | Top 50 tabs Artists:  A B C D E F G H I J K L M N O P Q R S T U V W X Y Z 0-9

Turmoils End--Running Guitar Tabs – Unsigned

CD, Sheet music, Poster

Do you like Turmoils End--Running? Share with your friends now
Tabs
RUNNING (road to nowhere)

1. Intro (Play intro 2 times)

E-------------- 0--------------
B------------0---0------------
G---------6--------6----------
D-----6-------------- 6-------
A--4--------------------------
E------------------------------ x2

E-------------- 0--------------
B------------0---0------------
G---------6--------6----------
D-----6-------------- 6-------
A--0--------------------------
E------------------------------ x2

2. Verses/Chorus

E--0-----0-----0----------
B--0-----0-----0----------
G--6-----4-----2----------
D--6-----4-----2----- ----
A--4-----2-----0----------
E---------------------------x2

E0--2---0--2---0-----
B0--2---0--2---0-----
G6--6---4--4---2-----
D6--6---4--4---2-----
A4--4---2--2---0-----
E--------------------------x2

3. Ending

E-------------- 0--------------------0-----------
B------------0---0---------------0----0--------
G---------6--------6----------6----------6-----
D-----6-------------- 6----6----------------6--
A--4---------------------0---------------------(4)
E------------------------------------------------x2

Play (4) the last time only





Comments


Popular Unsigned tabs & chords
Lsd Lucy - The Final Beginning Bass Tabs
New Cause - Jumpy Song Bass Tabs
Rift- Left Bass Tabs
Scope - I Just Want To *** You Bass Tabs
Broken Silence - No Name Tabs
Chilled Out Chords + Stuff Tabs
Dismount - Falling Down Tabs
Fernands Band - Mr. Haug Tabs
G.P.C- One More Tabs
Grudge Against Reality - Without Words Tabs


Song lyrics



↑ Back to top | Tablatures and chords are parodies/interpretations of the original songs. You may use it for private study, scholarship, research or language learning purposes only
© 2014 AZChords.com Contact us | Privacy policy | DMCA | Add/correct tabs | Request tabs | Top 50 tabs