» » »

Unsigned, Turmoils End--Running Tabs (ver.1)

Artists:  A B C D E F G H I J K L M N O P Q R S T U V W X Y Z # 

Turmoils End--Running Tabs (ver.1)

Unsigned Tabs
 Rating:
4/5 (4 votes)
Turmoils End--Running lessons Tabs too difficult? Try these video lessons and learn fast
                RUNNING (road to nowhere)

1. Intro (Play intro 2 times)

E-------------- 0--------------
B------------0---0------------
G---------6--------6----------
D-----6-------------- 6-------
A--4--------------------------
E------------------------------ x2

E-------------- 0--------------
B------------0---0------------
G---------6--------6----------
D-----6-------------- 6-------
A--0--------------------------
E------------------------------ x2

2. Verses/Chorus

E--0-----0-----0----------
B--0-----0-----0----------
G--6-----4-----2----------
D--6-----4-----2----- ----
A--4-----2-----0----------
E---------------------------x2

E—0--2---0--2---0-----
B—0--2---0--2---0-----
G—6--6---4--4---2-----
D—6--6---4--4---2-----
A—4--4---2--2---0-----
E--------------------------x2

3. Ending

E-------------- 0--------------------0-----------
B------------0---0---------------0----0--------
G---------6--------6----------6----------6-----
D-----6-------------- 6----6----------------6--
A--4---------------------0---------------------(4)
E------------------------------------------------x2

Play (4) the last time only
            
Submit corrections

comments powered by Disqus
↑ Back to top | Unsigned Tabs for Turmoils End--Running. Lyrics for acoustic guitar and electric guitar. Tablatures and chords are parodies/interpretations of the original songs. You may use it for private study, scholarship, research or language learning purposes only