» » »

Unsigned, Turmoils End--Pentatonic Offbeat Tabs (ver.1)

Artists:  A B C D E F G H I J K L M N O P Q R S T U V W X Y Z # 

Turmoils End--Pentatonic Offbeat Tabs (ver.1)

Unsigned Tabs
Rating:
0/5 (0 votes)
Turmoils End--Pentatonic Offbeat lessons Tabs too difficult? Try these video lessons and learn fast
                Pentatonic Offbeat

E-------------- -----------------------------
B--------------------------------------------
G-----9----12---11--------9---12---11---
D--9----9-----9----- --- 9---9----9-------
A--------------------------------------------
E----------------------0--------------------

E-------------- ------------------------------------------------------------------------------------------
B-----------------------------------------------12-------------------------------------------------------
G-------9----12---11--------9---12---11--------14---12-11-12-11---9------8--------------------
D----9----9-----9----- --- 9---9----9-----9----------0-----------------0----10-----9-----------------
A---------------------------------------------------------------------------------------------------------
E--0---------------------0--------------------------------------------------------------------------------

Power Chords 

A2, A3, A5, A7
            

comments powered by Disqus
↑ Back to top | Unsigned Tabs for Turmoils End--Pentatonic Offbeat. Lyrics for acoustic guitar and electric guitar. Tablatures and chords are parodies/interpretations of the original songs. You may use it for private study, scholarship, research or language learning purposes only