» » »

Unsigned, Touch Pretend Face Bass tabs (ver.1)

Artists:  A B C D E F G H I J K L M N O P Q R S T U V W X Y Z # 

Touch Pretend Face Bass tabs (ver.1)

Unsigned Tabs
Rating:
0/5 (0 votes)
Touch Pretend Face lessons Tabs too difficult? Try these video lessons and learn fast
                Intro
G------------------------------|X2
D------------------------------|
A--------------------3-3333-3--|
E-1-1111-1--3-3333-3-----------|


Verse
G----------------------------------------|x2
D----------------------------------------|
A-----------5>-5-55------------3>-3-33---|
E-1>-1-11------------3>-3-33-------------|


Verse Cont'd
G-------------------------------|X2
D-------------------------------|
A---------5-5555---------3-3333-|
E--1-1111---------3-3333--------|


Chorus
G-------------------------------|X2
D-------------------------------|
A---5-5-3-----4-4-----5---3>----|
E-1-------3-3-----0-1---3-------|

Bass Solo
G-------------------------------5------5-----5------5------|
D----3---------3-------3-----3------3------3-----3---------|
A-1-------1-------1------1---------------------------------|
D----------------------------------------------------------|


G----------------------------------------------------------------|
D--------5-------5-------5-----5------3------3-----3------3------|
A-----3-----3---------3---3-------5----5-------5----5------------|
D----------------------------------------------------------------|

G------------------------|
D------------------------|
A--3-3-------------------|
E-------6-6--55---3h5----|

Repeat Chorus X2 for outro
            
Submit corrections

comments powered by Disqus
↑ Back to top | Unsigned Bass for Touch Pretend Face. Lyrics for acoustic guitar and electric guitar. Tablatures and chords are parodies/interpretations of the original songs. You may use it for private study, scholarship, research or language learning purposes only