» » »

Todd Sanders - Untitled Tabs (ver.1)

Artists:  A B C D E F G H I J K L M N O P Q R S T U V W X Y Z # 

Todd Sanders - Untitled Tabs (ver.1)

Unsigned
Rating:
0/5 (0 votes)

Hard to play? Try these video lessons and learn fast.
                
Standard Tuning

Speed: 5 on E string in |A| should be right at 2 seconds,
3rd G chord should be at 1 second into |B|

Tab Key:
$-use previously underlined strumming pattern
h-hit on
p-pull off
				    
|A|	                  x4 |B|            $ $ $
---------------------------------|-3-33-3-33-333-2-3-3-----|
---------------------------------|-3-33-3-33-333-3-3-3-----|
-------0-------0-------0-------0-|-0-00-0-00-000-2-0-0-----|
-----0-------0-------0-------0---|-0-00-0-00-000-0-2-0-----|
---2-------4-------1-------2-----|-2-22-2-22-222---3-2-----|
-3-------5-------2-------3-------|-3-33-3-33-333-----3-----|                        __      _____________________________|_____________|
|A| |B| |C|             2|        1|x2 |D|
---|---|-2-222h3-3333p2-22----3-------|-----1--------11--11-
---|---|-3-333---3333---333-33333-3333|-2-222-22-222-222222-
---|---|-2-222---2222---22------------|-2-222-22-222-222222-
---|---|-0-000---0000---00------------|---------------------
---|---|------------------------------|---------------------
---|---|------------------------------|---------------------

      |C| |E|                |A|                 let 22 ring
-1-1-|---|-3-333-3--------3-|------------------------------2
2222-|---|-3-333-3------3---|-on 4th time slow down at--2---
2222-|---|-2-222-2----2-----|------(0)---------------(0)----
-----|---|-0-000-0--0-------|-strum(0)slow-----------(0)----
-----|---|------------------|------(2)---------------(1)----
-----|---|------------------|------(3)---------------(2)----
            
Hard to play? Try these video lessons and learn fast. | Correct




comments powered by Disqus
↑ Back to top | Tablatures and chords are parodies/interpretations of the original songs. You may use it for private study, scholarship, research or language learning purposes only