» » »

Unsigned, Tlg - Metalass Tabs (ver.1)

Artists:  A B C D E F G H I J K L M N O P Q R S T U V W X Y Z # 

Tlg - Metalass Tabs (ver.1)

Unsigned Tabs
 Rating:
4/5 (4 votes)
Tlg - Metalass lessons Tabs too difficult? Try these video lessons and learn fast
1
                normal tuning

intro
1----------------------------------
2----------------------------------
3----------------------------------
4-4-4-4-4-4-4-4-4-4-4-4-4-4-4-4-4--
5-2-2-2-2-2-2-2-2-2-2-2-2-2-2-2-2--
6----------------------------------
 ........p.m....and slowy release palm

chorus

1-------------------------------------------------------------------|--|
2-------------------------------------------------------------------|--|
3-------------------------------------------------------------------|x1|
4-2-let-ring--------------------------7-----------------------------|--|
5-2-----------------2----2----2-------7-let-ring-----5----5------5--|--|
6-0-------------3p0---3p0--3p0--------5----------5h7---5h7---5h7----|--|

1-----------------------------------------------------------------------------|--|
2-----------------------------------------------------------------------------|--|
3-----------------------------------------------------------------------------|x1|
4-2--------------------------7------------------5-----------------2-----------|--|
5-2-------------2----2---2---7-let-ring------5--5-let-ring----3---2--let ring-|--|
6-0----------3p0-3p0--3p0----5-----------5h7----3----------3h5----0-----------|--|


verse

1------------------------------------|--|
2------------------------------------|--|
3------------------------------------|x4|
4-2------------5---------------------|--|
5-2-----2-3-2--5----2-3/5------------|--|
6-0--0h3-------3-0h3-----------------|--|

solo

1------------------------------------------------------------------------
2--------------------------------------------------------15--12----------
3----------12-14b-12--------12-14b----------12-14b--12----------14-12----
4-----12h14------------12h14---------12h14----------------------------14-
5--14----------------14------------14------------------------------------
6------------------------------------------------------------------------

1-----------------------------------------10-7---------
2------8-10b-8-----8-10b--------8-10b-8---------10-8---
3--7h9----------7h9---------7h9-----------------------9
4-9------------9----------9----------------------------
5------------------------------------------------------
6------------------------------------------------------

bk to verse
            
Submit corrections

comments powered by Disqus
↑ Back to top | Unsigned Tabs for Tlg - Metalass. Lyrics for acoustic guitar and electric guitar. 1 Tablatures and chords are parodies/interpretations of the original songs. You may use it for private study, scholarship, research or language learning purposes only