» » »

Unsigned, Tito And Swan - We Dont Know Your Name Bass tabs (ver.1)

Artists:  A B C D E F G H I J K L M N O P Q R S T U V W X Y Z # 

Tito And Swan - We Dont Know Your Name Bass tabs (ver.1)

Unsigned Tabs
Rating:
0/5 (0 votes)
Tito And Swan - We Dont Know Your Name lessons Tabs too difficult? Try these video lessons and learn fast
                We Don't Even Know You're Name by Tito and Swan
Real Cool Bass Riff


Main
C     G    F    G          C     G    F    G
------5--5-3----5--5-7-5-------5-5--7-7--5-3------------------------
-3--3---------------------3--3--------------------------------------

C     G    F    G          C     G    F    G
------5--5-3----5--5-7-5-------5-5--7-7--5-3------------------------
-3--3---------------------3--3--------------------------------------


Chorus
F                C                 F                C     
10-10--9-9--7-7--5-5--5-7-5--5-7---10-10--9-9--10-9-7-5--5-5--7-7-5-

F                C               G
10-10--9-9--7-7--5-5--5-7-5--5-7------------------------------------
---------------------------------5-5-5-5-5-5-5-5-5-5-5-5-5-5-5-5----

Bridge
F               G
1-1-1-1-1-1-1-1-3-3-3-3-3-3-3-3-------------------------------------

Out of Bridge
G               
3--3---------------------------3--3---------------------------------
-----3--3-1--3--3-3-3---(x3)--------3--3-1-1-1-1-3-3----------------


Intro (roots CGFG)
Main
Chorus
Main 
Chorus
Bridge
Out of Bridge
Outro (same riff as Main)
            

comments powered by Disqus
↑ Back to top | Unsigned Bass for Tito And Swan - We Dont Know Your Name. Lyrics for acoustic guitar and electric guitar. Tablatures and chords are parodies/interpretations of the original songs. You may use it for private study, scholarship, research or language learning purposes only