» » »

Unsigned, Till The Death - A Farewell To Bill Bass tabs (ver.1)

Artists:  A B C D E F G H I J K L M N O P Q R S T U V W X Y Z # 

Till The Death - A Farewell To Bill Bass tabs (ver.1)

Unsigned Tabs
 Rating:
4/5 (4 votes)
Till The Death - A Farewell To Bill lessons Tabs too difficult? Try these video lessons and learn fast
                Regular Tuning
:= Palm Mute
h= Hold

Intro
G---7-9-5-7-9-7h9--5-7-9-7-5h7-
D-00-0-0-0-0-0---00-0-0-0-0----  5x
A------------------------------
E------------------------------

Chorus
G------------------------------------------
D------------------------------------------  4x
A-------33-3---------------------222-2-----
E-:00-0------:00-0--:00-0--:00-0-------3210

Verse 1
G---7-9-5-7-9-7h9--5-7-9-7-5h7-
D-00-0-0-0-0-0---00-0-0-0-0----  4x 
A------------------------------
E------------------------------

Verse 2
G--------------------------------------------------
D--------------------------------------------------  4x
A-----7----9----5----7h9----5----7----9----7----5h7
E-:000-:000-:000-:000---:000-:000-:000-:000-:000---

Break Down
G---------------------------------------
D---------------------------------------  5x
A---------------------------------------
E-0-0-00--0-0-00--0-0-00--0-0-00--0-0-00

Ending
Play 4x slow, then hit it open.
G-7--9--7--5--7--9--7--5--7--------0
D-----------------------------------  
A-----------------------------------
E-----------------------------------

That's it, my bands just starting up.  We're still lookin' for a singer, as of right now we are a three piece band, Alex on guitar, Tim(me) on bass, and Brandon on drums.
            
Submit corrections

comments powered by Disqus
↑ Back to top | Unsigned Bass for Till The Death - A Farewell To Bill. Lyrics for acoustic guitar and electric guitar. Tablatures and chords are parodies/interpretations of the original songs. You may use it for private study, scholarship, research or language learning purposes only