» » »

Unsigned, Thorn - Suicide Is Your Friend Tabs (ver.1)

Artists:  A B C D E F G H I J K L M N O P Q R S T U V W X Y Z # 

Thorn - Suicide Is Your Friend Tabs (ver.1)

Unsigned Tabs
 Rating:
4/5 (4 votes)
Thorn - Suicide Is Your Friend lessons Tabs too difficult? Try these video lessons and learn fast
1
                This is my bands song so I hope you like it cause it's a kick ass song and easy to play plus the lyrics will teach you a lesson!
Tuning-Drop D
D-A-D-G-B-E

-Xxxx1xxxx1xxxx1xxxx1xxxx1xxxx1xxxx1xxxx1-0-----------------------------------
 INTRO                                    LET THE 0 RING OUT                  

-0-7-0-7-0-9-9-55555-33333-00000-0-7-0-7-0-9-9-55555--33333-00000-------------
-0-7-0-7-0-9-9-55555-33333-00000-0-7-0-7-0-9-9-55555--33333-00000-------------
-0-7-0-7-0-9-9-55555-33333-00000-0-7-0-7-0-9-9-55555--33333-00000-------------
 CHORUS                                                                       

------8-----6------8------6------8------6------8------6------8------6------8--
---7------5------7------5------7------5------7------5------7------5------7----
-6------4------6------4------6------4------6------4------6------4------6------
 VERSE                                                                        

-----6------8------6------8------6--------------------------------------------
---5------7------5------7------5----------------------------------------------
-4------6------4------6------4------------------------------------------------
 VERSE CONTINUED

-0-7-0-7-0-9-9-55555-33333-00000-0-7-0-7-0-9-9-55555--33333-00000-------------
-0-7-0-7-0-9-9-55555-33333-00000-0-7-0-7-0-9-9-55555--33333-00000-------------
-0-7-0-7-0-9-9-55555-33333-00000-0-7-0-7-0-9-9-55555--33333-00000-------------
 CHORUS

------8-----6------8------6------8------6------8------6------8------6------8--
---7------5------7------5------7------5------7------5------7------5------7----
-6------4------6------4------6------4------6------4------6------4------6------
 VERSE                                                                        

-----6------8------6------8------6--------------------------------------------
---5------7------5------7------5----------------------------------------------
-4------6------4------6------4------------------------------------------------
 VERSE CONTINUED

-0-7-0-7-0-9-9-55555-33333-00000-0-7-0-7-0-9-9-55555--33333-00000-------------
-0-7-0-7-0-9-9-55555-33333-00000-0-7-0-7-0-9-9-55555--33333-00000-------------
-0-7-0-7-0-9-9-55555-33333-00000-0-7-0-7-0-9-9-55555--33333-00000-------------
 CHORUS

-Xxxx1xxxx1/2-2-xxxx1xxxx1/2-2-xxxx1xxxx1/2-2-xxxx1xxxx1/2-22222-0-------------
-Xxxx1xxxx1/2-2-xxxx1xxxx1/2-2-xxxx1xxxx1/2-2-xxxx1xxxx1/2-22222-0-------------
-Xxxx1xxxx1/2-2-xxxx1xxxx1/2-2-xxxx1xxxx1/2-2-xxxx1xxxx1/2-22222-0-------------
Intro To Interlude 1                                                             Let The 0 ring out

-5-3-7-8-10-8-7-5-3-----------------------------------------------------------
-5-3-7-8-10-8-7-5-3-----------------------------------------------------------
-5-3-7-8-10-8-7-5-3-------------------------------------------------------------
Interlude 1 Repeat 4 times then go into Interlude 2

-0-7-8-0-7-8-9-5-3------------------------------------------------------------
-0-7-8-0-7-8-9-5-3------------------------------------------------------------
-0-7-8-0-7-8-9-5-3------------------------------------------------------------
 INTERLUDE 2

-0-7-0-7-0-9-9-55555-33333-00000-0-7-0-7-0-9-9-55555--33333-00000-------------
-0-7-0-7-0-9-9-55555-33333-00000-0-7-0-7-0-9-9-55555--33333-00000-------------
-0-7-0-7-0-9-9-55555-33333-00000-0-7-0-7-0-9-9-55555--33333-00000-------------
 CHORUS

-33333333333-0----------------------------------------------------------------
-33333333333-0----------------------------------------------------------------
-33333333333-0----------------------------------------------------------------
 OUTRO        LET 0 RING OUT UNTIL HUMMING NOISE STARTS THEN PALM MUTE 
                  ALL THE STRINGS
            
Submit corrections

comments powered by Disqus
↑ Back to top | Unsigned Tabs for Thorn - Suicide Is Your Friend. Lyrics for acoustic guitar and electric guitar. 1 Tablatures and chords are parodies/interpretations of the original songs. You may use it for private study, scholarship, research or language learning purposes only