» » »

This Is - Bugg3r Tabs (ver.1)

Artists:  A B C D E F G H I J K L M N O P Q R S T U V W X Y Z # 

This Is - Bugg3r Tabs (ver.1)

Unsigned
Rating:
0/5 (0 votes)
Tabs too difficult? Try these video lessons and learn fast.
                           2x                                              3x
E||--------||------|------||-------------------------------||
B||--------||------|------||-------------------------------||
G||*------*||------|------||*-----------------------------*||
D||*------*||------|------||*--------7-7-7-9--9-9-9--9-7--*||
A||--------||------|------||---------7-7-7-9--9-9-9--9-7---||
E||--------||------|------||---0--0--5-5-5-7--7-7-7--7-5---||


                               3x      
-------------------------------||----||
-------------------------------||----||
*-----------------------------*||----||
*--5--5--7-7-7-9--9-9-9--9-9--*||----||
---5--5--7-7-7-9--9-9-9--9-9---||----||
---3--3--5-5-5-7--7-7-7--7-7---||----||
            
Tabs too difficult? Try these video lessons and learn fast.


comments powered by Disqus
↑ Back to top | Tablatures and chords are parodies/interpretations of the original songs. You may use it for private study, scholarship, research or language learning purposes only