» » »

Unsigned, The Wolves-Untitled Tabs (ver.1)

Artists:  A B C D E F G H I J K L M N O P Q R S T U V W X Y Z # 

The Wolves-Untitled Tabs (ver.1)

Unsigned Tabs
 Rating:
4/5 (4 votes)
The Wolves-Untitled lessons Tabs too difficult? Try these video lessons and learn fast
                INTRO(4X)

E--------------------------------------------------
B--------------------------------------------------	
G---9-----------------5---------------------------
D---9-(8X)--3--------5—(8X)-5--------7--------
A---7--------3-(8X)--3--------5-(4X)--7—(4X)-
E-------------1-----------------3--------5-------

D-3----------------
A-3-(1X)-HOLD---
E-1-----------------

VERSE(4X) P.M.(PALM MUTED)
E------------------------------------------------
B------------------------------------------------
G-3--------7------------------------------------
D-3-(8X)--7-(8X)--4--------7------------------
A-1--------5--------4-(8X)--7-(8X)------------
E--------------------2--------5------------------

POST CHORUS (2X)
E--------------------------------
B--------------------------------
G--------------------------------
D-5--------3--------9-----------
A-5-(8X)--3-(8X)--9-(16X)-----
E-3--------1--------7------------

CHORUS (4X)
E---------------------------------------------
B---------------------------------------------
G-----------10--------8----------5---------
D-6--------10-(8X)--8—(8X)--5—(8X)--
A-6-(8X)--8----------6---------3----------
E-4------------------------------------------
            
Submit corrections

comments powered by Disqus
↑ Back to top | Unsigned Tabs for The Wolves-Untitled. Lyrics for acoustic guitar and electric guitar. Tablatures and chords are parodies/interpretations of the original songs. You may use it for private study, scholarship, research or language learning purposes only