>
 >
The Whipping Boy

The Whipping Boy Bass Tabs

Unsigned - The Whipping Boy chords, tabs, tablatures, lyrics

Guitar lessons | Add/correct | Request | Top 50 tabs Artists:  A B C D E F G H I J K L M N O P Q R S T U V W X Y Z 0-9

The Whipping Boy Bass Tabs – Unsigned

CD, Sheet music, Poster

Do you like The Whipping Boy? Share with your friends now
Bass Tabs
G|----7-----5-----3-5-3---3-5-3--|
D|0-0---0-0---0-0-------5-------5|
A|-------------------------------|
E|-------------------------------|
  e e e e e e e e q e e e e e e q                            

G|----7-----5-----3-5-3---3-5-3-5|
D|0-0---0-0---0-0-------5--------|
A|-------------------------------|
E|-------------------------------|
  e e e e e e e e q e e e e e e q       


Break 1
G|-(5)-5-3------------|
D|---------4-3--------|
A|-------------5-4----|
E|-----------------3-0|
   (e) e e e e e e e e   


Verse 
G|----------------------------------|
D|----------------------------------|
A|-----------------7---------------5|
E|-(0)-0-0-0-0-0-0---0-0-0-0-0-0-0--|
   (e) e e e e e e e e e e e e e e e

G|---------------|-----------------|--|--|
D|---------------|----------------.|--|--|
A|--------------3|-----------7----.|--|--|
E|0-0-0-0-0-0-0--|-0h5-5-7-5---5-3-|-0|-0|
  e e e e e e e e  e q e e e e e e   e  q       


Chorus 
G|------------|------------|------------|------------|
D|---7---8---7|---5---6---5|------------|------------|
A|-5---5---5--|-3---3---3--|---5---6---5|---7---8---7|
E|------------|------------|-3---3---3--|-5---5---5--|
   q e e e e e  q e e e e e  q e e e e e  q e e e e e


Break 2
G|----------------|
D|----------------|
A|-5-5-3-3--------|
E|---------5-5-3-0|
   e e e e e e e e

Outro
G|-------7-------------7-------7|-Replace-"7"-w/5-and-then-3|
D|-0-0-0---0-0-0-0-0-0---0-0-0--|-Same-Riff-Next-2-times----|
A|------------------------------|---------------------------|
E|------------------------------|---------------------------|
   e e e e e e e e e e e e e e e
Order:

Intro   (4x) {Drums enter on 2nd}
Break 1 (1x)
Verse   (1x)
Chorus  (2x)
Break 2 (1x)
Verse   (1x)
Chorus  (2x)
Break 2 (1x)
Outro   (6x) {Fade out}





Comments


Popular Unsigned tabs & chords
Ten Seconds To Go - The Blvd. Bass Tabs
The Accidents - Last Pick Bass Tabs
The Death Of Gwen Stacy-Songsonyourwall Bass Tabs
Yuk Foo - March Of The Chickens Bass Tabs
Asswipes - Tedm Tabs
Double O Punk-Fananel Tabs
Emodium -Rosewater Tabs
Faded 2 Black - Void Spaces Tabs
Fernands Band - Loser Tabs
Forced To Change-Constipation Tabs


Song lyrics



↑ Back to top | Tablatures and chords are parodies/interpretations of the original songs. You may use it for private study, scholarship, research or language learning purposes only
© 2014 AZChords.com Contact us | Privacy policy | DMCA | Add/correct tabs | Request tabs | Top 50 tabs