» » »

The Victims-The Pikie Song Tabs (ver.1)

Artists:  A B C D E F G H I J K L M N O P Q R S T U V W X Y Z # 

The Victims-The Pikie Song Tabs (ver.1)

Unsigned
Rating:
0/5 (0 votes)

Hard to play? Try these video lessons and learn fast.
                Both Guitars...

       E------------------------------------
       B------------------------------------
       G------------------------------------   For the Whole Verse
       D--4-4-4-4-4-4-4-4-4-4-4-4-4-4-4-4-4-
       A--4-4-4-4-4-4-4-4-4-4-4-4-4-4-4-4-4-
       E--2-2-2-2-2-2-2-2-2-2-2-2-2-2-2-2-2-  


   Chorus

   Gtr.1
     
    E------------------------------
    B------------------------------
    G--888888-666666---------------
    D--888888-666666-44444444444---
    A--666666-444444-44444444444---
    E----------------22222222222---  x3 then back to verse

   Gtr.2
                                *
    E-----------6-6-6-6-4-4-4-4-6-------
    B-----------------------------------
    G-----------------------------------
    D-----------------------------------
    A-----------------------------------
    E----------------------------------- x3 then back to verse
            
Hard to play? Try these video lessons and learn fast. | Correct




comments powered by Disqus
↑ Back to top | Tablatures and chords are parodies/interpretations of the original songs. You may use it for private study, scholarship, research or language learning purposes only