» » »

The Titheads-I Like Balls Tabs (ver.1)

Artists:  A B C D E F G H I J K L M N O P Q R S T U V W X Y Z # 

The Titheads-I Like Balls Tabs (ver.1)

Unsigned
Rating:
0/5 (0 votes)

Hard to play? Try these video lessons and learn fast.
                Hey there this is a well good song!!!!!!!!!!!!!!!!!!!!!!!!!!!!!!!!!!!!!!!!!!!


  e---------------------------------------               Verse1
  b---------------------------------------
  g---------------------------------------           Balls are fun they're
  d-------------------------------------7-           sometimes round Ah
  a-------------------------------------7-           but my friend Bobs       
  E---4-5-4-5-4-5-6-5-4-5-4-5-4-5-6-5---5-  x19     are triangular 
                                                    i only know cause i saw them
                                                    i licked them too ha ha ha!

  e-6--7--8--88888---------------------------
  b--8---7--2222222222222222222--------------
  g------------------------------------------
  d------------------------------------------
  a-------------------------------44551234123
  E------------------------------------------
            
Hard to play? Try these video lessons and learn fast. | Correct




comments powered by Disqus
↑ Back to top | Tablatures and chords are parodies/interpretations of the original songs. You may use it for private study, scholarship, research or language learning purposes only