» » »

Unsigned, The - Sweet Tea Bass tabs (ver.1)

Artists:  A B C D E F G H I J K L M N O P Q R S T U V W X Y Z # 

The - Sweet Tea Bass tabs (ver.1)

Unsigned Tabs
Rating:
0/5 (0 votes)
The - Sweet Tea lessons Tabs too difficult? Try these video lessons and learn fast
                sweet song, wrote it maself play it fast but not too fast
intro
----------------------------
---------------------------- X 2
-------7-------9------0-----
00-7-9--00-7-9--00-7-9------
then play
---------------------------------
---------------------------------  X 1
-------7--------9--------7-9-0~--
00-7-9---00-7-9---00-7-9---------

verse
-------------------00000000-99999999-88888888---------------------
-00000000-99999999----------------------------88888888-99999999---

chorus same as intro, play once

verse again, 3 times

chorus once again


bridge/bass solo
----------------------------
------------00-77-----------  X 3
00-33-55-77-----------------
-----------------00-33-55---

ending
-------------------------------------
------------00-77--------------------
00-33-55-77---------------55-44-0~---
------------------00-33-55-----------


THE END PLEEEEEEZ RATE MY SONG (IF YOU LIKE IT)
it is really easy, except maybe some begginers may find the chorus fingerings a bit tricky.
            
Submit corrections

comments powered by Disqus
↑ Back to top | Unsigned Bass for The - Sweet Tea. Lyrics for acoustic guitar and electric guitar. Tablatures and chords are parodies/interpretations of the original songs. You may use it for private study, scholarship, research or language learning purposes only