» » »

The Standard - Untitled Tabs (ver.1)

Artists:  A B C D E F G H I J K L M N O P Q R S T U V W X Y Z # 

The Standard - Untitled Tabs (ver.1)

Unsigned
Rating:
0/5 (0 votes)

Tabs too difficult? Try these video lessons and learn fast.
                Well my friend's band is named "The Standard". They're from Las Vegas, NV.
They're music rocks. My friend, JC, does a lot of the writing. Try this
song out. Its kinda difficult to read get obviously cuz you've probably never
heard the song before. I'll try my hardest to give the easiest most elaborate
and detailed instructions I can. =) Its an easy song once you get the hang of
it. (The lyrics aren't finished yet.)


[Intro] Strum the chords fully in downward strokes <dont strum up>. (I'm 
sorry I don't know the names to the chords. Everything I learned on guitar
was self taught =/)


E|---0--0-0-0-0---0--0-0-0-0---0--0-0-0-0
B|---0--0-0-0-0---0--0-0-0-0---0--0-0-0-0
D|---1--1-1-1-1---4--4-4-4-4---2--2-2-2-2
G|---2--2-2-2-2---4--4-4-4-4---2--2-2-2-2
A|---2--2-2-2-2---2--2-2-2-2---0--0-0-0-0
E|---0--0-0-0-0---0--0-0-0-0---0--0-0-0-0

E|---0--0-0-0-0---0--0-0-0-0---0--0-0-0-0-0  }
B|---0--0-0-0-0---0--0-0-0-0---0--0-0-0-0-0  }
D|---6--6-6-6-6---4--4-4-4-4---2--2-2-2-2-2  }Let the last 
G|---6--6-6-6-6---4--4-4-4-4---2--2-2-2-2-2  }chord ring
A|---4--4-4-4-4---2--2-2-2-2---0--0-0-0-0-0  }
E|---0--0-0-0-0---0--0-0-0-0---0--0-0-0-0-0  }




[Verse] Finger picking. (I'm new with tabs so bare with me. I believe its
accurate)

/part A/ 

E|--------------0--------------0----------------0------0-----0-----0-
B|----------0-----0---------0-----0---------0-----0------0-----0-----
D|------9-8---8---------9-8---8---------9-8---8------8-----8-----8---
G|----9---------------9---------------9------------------------------
A|--7-------------------------------0--------------------------------
E|------------------7------------------------------------------------
	
/part B/
					       
E|--------------0--------------0----------------0------0-----0-----0-
B|----------0-----0---------0----0----------0-----0------0-----0-----
D|------9-8---8---------9-8---8---------9-8---8------8-----8-----8---
G|----9---------------9---------------9------------------------------
A|----------------------------------0--------------------------------
E|--9---------------7------------------------------------------------

<repeat A>

/part C/						strum
E|--------------0--------------0----------------0---------0-0-0-0-0
B|----------0-----0---------0----0----------0-----0-------0-0-0-0-0
D|------9-8---8---------9-8---8---------9-8---8-----------9-9-9-9-9
G|----9---------------9---------------9-------------------9-9-9-9-9
A|----------------------------------0---------------------0-0-0-0-0
E|--9---------------7-------------------------------------0-0-0-0-0





[Chorus] Strum (all downward)

E|--0-0-0-0-0--0-0-0-0-0--0-0-0-0-0--0-0-0-0-0
B|--0-0-0-0-0--0-0-0-0-0--0-0-0-0-0--0-0-0-0-0
D|--9-9-9-9-9--9-9-9-9-9--9-9-9-9-9--9-9-9-9-9
G|--9-9-9-9-9--9-9-9-9-9--9-9-9-9-9--9-9-9-9-9
A|--0-0-0-0-0--0-0-0-0-0--0-0-0-0-0--0-0-0-0-0
E|--9-9-9-9-9--7-7-7-7-7--0-0-0-0-0--0-0-0-0-0
<repeat 4 times>

<repeat intro>

<repeat verse>

<repeat chorus> Let last chord ring 

This is JC's latest piece. Its not his best but I think it's not too bad.
Thanks, and rock on. ;o)
            
Tabs too difficult? Try these video lessons and learn fast.




comments powered by Disqus
↑ Back to top | Tablatures and chords are parodies/interpretations of the original songs. You may use it for private study, scholarship, research or language learning purposes only