» » »

The Flying Llamas Bass tabs (ver.1)

Artists:  A B C D E F G H I J K L M N O P Q R S T U V W X Y Z # 

The Flying Llamas Bass tabs (ver.1)

Unsigned
Rating:
0/5 (0 votes)

Hard to play? Try these video lessons and learn fast.
                INTRO
g------------
d------------
a------------
e797 12 -7975

VERSE
g----035379 11 97------573565----
d0353------------573565----------
a--------------------------------
e----------------------------3579

PRECHORUS
g-------------------5005
d--------------5005
a--31----575-----------
e1--1-3----3-0---------

CHORUS
g----------------------------
d----------------------------
a0000----33--53--35----00--00
e----0000--33--35--5300--00--

play VERSE 1 more time and than the chorus... finish with the prechorus 2 times

peace
            
Hard to play? Try these video lessons and learn fast. | Correct




comments powered by Disqus
↑ Back to top | Tablatures and chords are parodies/interpretations of the original songs. You may use it for private study, scholarship, research or language learning purposes only