» » »

The Elderberries - My Way Tabs (ver.1)

Artists:  A B C D E F G H I J K L M N O P Q R S T U V W X Y Z # 

The Elderberries - My Way Tabs (ver.1)

Unsigned
Rating:
0/5 (0 votes)

Hard to play? Try these video lessons and learn fast.
                MY WAY
As recorded by The Elderberries

	Words by Chris Boulton Music by Ryan Sutton, Jamie Pope, Yann Clavaizole
Arranged by Ryan Sutton And Chris Boulton


E5
0 2 2 x x x	D5
x x 0 2 3 x	A5
x 0 2 2 x x


Gtr I (E A D G B E) - 'Tom/Ryan Riff'
Gtr II (E A D G B E) - 'Ryan Solo'

  Gtr I
|----------|--------------|--------------|---------------------|
|----------|-3------------|-3------------|---------------------|
|----------|-2--2-2-------|-2--2-2-------|-2-------------------|
|-2--------|-0--2-2-------|-0--2-2-------|-2--2-2-----2--------|
|-2--------|----0-0-------|----0-0-------|-0--2-2-----2--------|
|-0--------|--------------|--------------|----0-0-----0--------|


  
|--------------|--------------|--------------|
|-3------------|-3------------|--------------|
|-2--2-2-------|-2--2-2-------|-2------------|
|-0--2-2-------|-0--2-2-------|-2--2-2-------|
|----0-0-------|----0-0-------|-0--2-2-------|
|--------------|--------------|----0-0-------|


    Gtr II
||-----------------------------------------------||
||o---------------------------------------------o||
||-----------------------------------------------||
||-----------------------------------------------||
||o-7--9b10r==7-7---9b10r=7-7-9b10r=7-7--7--5-5-o||
||-----------------------------------------------||



|------------------------------|
|-5--7b8r5-5---7b8r=5-5-7b8r5-5|
|------------------------------|
|------------------------------|
|------------------------------|
|------------------------------|


                                                      ~~
|-----------------------------8-10-10b11r8----8------------|
|-5--3-3----5---8--10-10---10--------------10---10-8-10----|
|----------------------------------------------------------|
|----------------------------------------------------------|
|----------------------------------------------------------|
|----------------------------------------------------------|


  Gtrs I, II
|----------------------------------------------------------*|
|--------------3---------------3-------3-------------------*|
|--------------2--2-2-2-2-2-2--2--2-2--2--2-2--2-----------*|
|-2-2-2-2-2-2--0--2-2-2-2-2-2--0--2-2--0--2-2--2--2-2-2----*|
|-2-2-2-2-2-2-----0-0-0-0-0-0-----0-0-----0-0--0--2-2-2----*|
|-0-0-0-0-0-0-------------------------------------0-0-0----*|
            
Hard to play? Try these video lessons and learn fast. | Correct




comments powered by Disqus
↑ Back to top | Tablatures and chords are parodies/interpretations of the original songs. You may use it for private study, scholarship, research or language learning purposes only