» » »

Unsigned, The - Dr Pepper Bass tabs (ver.1)

Artists:  A B C D E F G H I J K L M N O P Q R S T U V W X Y Z # 

The - Dr Pepper Bass tabs (ver.1)

Unsigned Tabs
 Rating:
4/5 (4 votes)
The - Dr Pepper lessons Tabs too difficult? Try these video lessons and learn fast
1
                my new song........pleeeeeeeez rate it (if you like it)


INTRO
0-12-1212-7-9-99-0000-12-1212-7-9~
---------------------------------- X 2
----------------------------------
----------------------------------
then play
0-12-1212-7-9-99-0000-12-1212-7-9-11-0~
--------------------------------------- X 1
---------------------------------------
---------------------------------------

VERSE
---------------------------
12-1212-7-77-9-99-0-00----- X 7
---------------------------
---------------------------
last part of verse:
-------------------------------------
12-1212-7-77-9-99-1212121212121212-0~ X 1
-------------------------------------
-------------------------------------
chorus
-------------------------------------------
--------------------------------------10-0~
00-1212-9-12--00-1212-9-12--00-1212-9------
-------------------------------------------

verse again

chorus again

bridge
----------------------------
0-0-9---------------------0~ X 3
------9999-12-101010-0------
-----------------------10---
ENDING
-------------------------------------------
--------------------------------------10-0~ X 1
00-1212-9-12--00-1212-9-12--00-1212-9------
-------------------------------------------

---------------------------------------------
--------------------------------------10----- X 1
00-1212-9-12--00-1212-9-12--00-1212-9---10-0~
---------------------------------------------
thats it......check out my other song
            
Submit corrections

comments powered by Disqus
↑ Back to top | Unsigned Bass for The - Dr Pepper. Lyrics for acoustic guitar and electric guitar. 1 Tablatures and chords are parodies/interpretations of the original songs. You may use it for private study, scholarship, research or language learning purposes only