» » »

Unsigned, The Death Of Gwen Stacy-Songsonyourwall Bass tabs (ver.1)

Artists:  A B C D E F G H I J K L M N O P Q R S T U V W X Y Z # 

The Death Of Gwen Stacy-Songsonyourwall Bass tabs (ver.1)

Unsigned Tabs
 Rating:
4/5 (4 votes)
The Death Of Gwen Stacy-Songsonyourwall lessons Tabs too difficult? Try these video lessons and learn fast
                Bassist: Alex Himes

Intro:
G-----------------------------------------------------------------------
D------------------------------------2222222222222222-------------------
A-----------------------------------------------------3333333333333333--
E--3333333333333333-2222222222222222------------------------------------

G--------------------------------------------------------<
D------------------------------------2222222222222222----< x1
A-----------------------------------------------------3--<
E--3333333333333333-2222222222222222---------------------<

Bridge:
G---------------------<
D---------------------< x1
A--(3)-------------0--< Play the A--(3) on just the first bridge (out of the intro)
E--------5----3-------<

Verse:
G----------------------------------------------------------<
D----------------------------------------------------------< x4
A--33333333333333h5b------------------------------------0--<
E--------------------55555555555555/7b-3333333333333333----<

Chorus:
G--------------------------------------<
D-----------22222222-------------------< x4
A--33333333----------------------------<
E--------------------3333333333333333--<

Interlude Part 1:
G-------------------------------------------0--<
D----------------------------------------------<
A--33-------------------330--------------------<
E-------00---33---33----------00---33---33-----<

Interlude Part 2:
G---------------------------------------<
D---------------------------------------< x3
A--33333333-----------------------------<
E-----------00000000-33333333333333333--<

Interlude Part 3 (Buildup):
G---------------------------------------------------------------------<
D---------------------------------------------------------------------< x1
A--33333333-77777777-10-10-10-10-10-10-10-10-10-10-10-10-10-10-10-10--<
E---------------------------------------------------------------------<

Outro:
G-----------------------------------------------------------------------
D------------------------------------2222222222222222-------------------
A-----------------------------------------------------33333333-<pause>--
E--3333333333333333-2222222222222222------------------------------------

G--------------------------------------------------------<
D------------------------------------2222222222222222----<x1
A-----------------------------------------------------3--<
E--3333333333333333-2222222222222222---------------------<

Progression:
Intro
Bridge
Verse
Chorus
Bridge
Verse
Chorus
Interlude Part 1
Interlude Part 2
Interlude Part 3
Chorus
Outro
            
Submit corrections

comments powered by Disqus
↑ Back to top | Unsigned Bass for The Death Of Gwen Stacy-Songsonyourwall. Lyrics for acoustic guitar and electric guitar. Tablatures and chords are parodies/interpretations of the original songs. You may use it for private study, scholarship, research or language learning purposes only