» » »

Unsigned, The C-4 Bass tabs (ver.1)

Artists:  A B C D E F G H I J K L M N O P Q R S T U V W X Y Z # 

The C-4 Bass tabs (ver.1)

Unsigned Tabs
 Rating:
4/5 (4 votes)
The C-4 lessons Tabs too difficult? Try these video lessons and learn fast
                This is a tab from a new band called The C-4.  I’m the bass player in the band so I know that this tab is correct.

It sounds better if u turn your everything on high, but leave your mid halfway.

Tune to: E, A, D, G

E--x-----------x---------x---------x----------
A---------------------------------------------
D---------------------------------------------
G---------------------------------------------  

Intro: x2
E--0------0-----3-----3-----4-----5-----7-----7-----7-------
A-----------------------------------------------------------
D-----------------------------------------------------------
G-----------------------------------------------------------

Verse: x8
E--0-----0-----8------8-----5-----5-----8-----8-----
A---------------------------------------------------
D---------------------------------------------------
G---------------------------------------------------                           

Chorus: x2
E--0-----0-----2-----2----5----5----4----5----4----2----0---
A-----------------------------------------------------------
D-----------------------------------------------------------
G-----------------------------------------------------------  

Verse 2: x8	
E--0-------0-------8--------8-------5-------5-------8-------8------
A------------------------------------------------------------- ----
D------------------------------------------------------------------
G------------------------------------------------------------------

Solo: x1
E--------------------------------------------------------------------------
A--------------------------------------------------------------------------
D-------0----0-----0---------------------------0------0------0-------------
G---2-----3-----5----5---3---2---2---3---2---2-----3-------5----5---3---2--

E--------------------------------------------------------------------------
A------------------------------------------------------------- ------------
D-----------------------0--------------------------------------------------
G--2----3-----2-----8------5----3----2----2----3----2---0----5----3---2----

E-----------------------------------------------------------------------------
A------------------------------------------------------------- ---------------
D--------------------------------------------------------0--------------------
G---2----3-----2-----0----5-----3-----2----2-----3---2------8----5-----3---2--
						 Chorus: x2
E--0---0----2---2---5---5---4---5----4---2---0-
A----------------------------------------------
D----------------------------------------------
G----------------------------------------------                                                                                     Outro: x1
E--0--------0---------------------------------
A---------------------------------------------
D---------------------------------------------
G---------------------------------------------
            
Submit corrections

comments powered by Disqus
↑ Back to top | Unsigned Bass for The C-4. Lyrics for acoustic guitar and electric guitar. Tablatures and chords are parodies/interpretations of the original songs. You may use it for private study, scholarship, research or language learning purposes only