» » »

The Anics - Sorry Tabs (ver.1)

Artists:  A B C D E F G H I J K L M N O P Q R S T U V W X Y Z # 

The Anics - Sorry Tabs (ver.1)

Unsigned
Rating:
0/5 (0 votes)

Hard to play? Try these video lessons and learn fast.
                Hey, this songs is kool! Work out the rhythms yourself, it's pretty simple.

Intro/Verse First Part of Chorus
e------------------------------------
B------------------------------------
G----------4-4-4-4--6-6-6-6----------
D-2-2-2-2--4-4-4-4--6-6-6-6--7-7-7-7-
A-2-2-2-2--2-2-2-2--4-4-4-4--7-7-7-7-
E-0-0-0-0--------------------5-5-5-5-

Second part of Chorus
e----------------------------------
B----------------------------------
G----------------------------------
D-2-2-2--4-4-4--7-7-7--7-----------
A-2-2-2--4-4-4--7-7-7--7-----------
E-0-0-0--2-2-2--5-5-5--5--5-4-5-7--

Guitar Solo
e------------------------------------------
B------------------12p10-12p10-12p10-12p10-
G-9p7-9p7-9p7-9p7--------------------------
D------------------------------------------
A------------------------------------------
E------------------------------------------

e----------------------------------------------
B-14p12-14p12-14p12-14p12--10p9-10p9-10p9-10p9-
G----------------------------------------------
D----------------------------------------------
A----------------------------------------------
E----------------------------------------------

Then it repeats the chorus again then let this chord ring:
e-----
B-----
G-----
D-2---
A-2---
E-0---

That's it! Enjoy!
            
Hard to play? Try these video lessons and learn fast. | Correct




comments powered by Disqus
↑ Back to top | Tablatures and chords are parodies/interpretations of the original songs. You may use it for private study, scholarship, research or language learning purposes only