» » »

The Accidents - Last Pick Bass tabs (ver.1)

Artists:  A B C D E F G H I J K L M N O P Q R S T U V W X Y Z # 

The Accidents - Last Pick Bass tabs (ver.1)

Unsigned
Rating:
0/5 (0 votes)

Hard to play? Try these video lessons and learn fast.
                This tab is from a new band, The Accidents.  I’m the bass player in the band so I know that this tab is correct.  

It is correct and sounds better if you turn your amp up all the way.

Tune to: E, A, D, G

x = mute
* = play 6 times

Intro: x2
G---------------------------------------------
D---------------------------------------------
A---------------------------------------------
E----3*x---7x---5x----------------------------

Intro 2: x2
G---------------------------------------------
D---------------------------------------------
A---------------------------------------------
E----3*---7---5-------------------------------

Verse: x2
G----------------------------------------------
D----------------------------------------------
A----------------------------------------------
E----3*pm---7pm---5pm--------------------------

Chorus: x2
G----------------------------------------------
D----------------------------------------------
A----------------------------------------------
E----3*---7---5--------------------------------

Verse 2: x2
G----------------------------------------------
D----------------------------------------------
A----------------------------------------------
E----3*pm---7pm---5pm--------------------------

Chorus: x2
G---------------------------------------------
D---------------------------------------------
A---------------------------------------------
E----3*---7---5-------------------------------

Chorus: x2
G----------------------------------------------
D----------------------------------------------
A----------------------------------------------
E----3*---7---5--------------------------------
            
Hard to play? Try these video lessons and learn fast. | Correct




comments powered by Disqus
↑ Back to top | Tablatures and chords are parodies/interpretations of the original songs. You may use it for private study, scholarship, research or language learning purposes only