» » »

Unsigned, The Accidentals - Change Is Bad Bass tabs (ver.1)

Artists:  A B C D E F G H I J K L M N O P Q R S T U V W X Y Z # 

The Accidentals - Change Is Bad Bass tabs (ver.1)

Unsigned Tabs
Rating:
0/5 (0 votes)
The Accidentals - Change Is Bad lessons Tabs too difficult? Try these video lessons and learn fast
                Verse
G-----------------------------------------------------------------
D-----------------------------------------------------------------
A-----------------5-5-5-5-5-5-5-5-----------------5-5-5-5-3-3-3-3-
E-3-3-3-3-3-3-3-3-----------------0-0-0-0-0-0-0-0-----------------
Chorus
G------------------------------------------------
D------------------------------------------------
A-----------------2-2-2-2-2-2-2-2---------3-3-3-3
E-3-3-3-3-3-3-3-3-----------------0-0-0-0--------
            

comments powered by Disqus
↑ Back to top | Unsigned Bass for The Accidentals - Change Is Bad. Lyrics for acoustic guitar and electric guitar. Tablatures and chords are parodies/interpretations of the original songs. You may use it for private study, scholarship, research or language learning purposes only